Oops, an error
Loading. Please wait.

Divide Y Vencerás tab

version 2
version 2

Whole song

44 views 1 this week
no commentswrite comment
1 2 3 4 5
3 more votes to show rating
add to favorites
×
Save as Personal and add changes to this tab that will be seen only by you. Learn more ›
×
You can save this tab as Personal to edit and correct it or add notes. All changes will be seen only by you. Learn more »
launch autoscroll
font size
0
reset
how to read this tab
guitar tuner
edit
Autoscroll
slow
fast
+/-
esc
set tempo
stop
la otra versión que hay vale callampa, no se parece en nada a este
gran tema xD
Así que aquí va mi versión, ojalá que sirva!

Punteo del principio (es el mismo durante todo el tema)

e|-----------------------------------------------------------------|
b|-----------------------------------------------------------------|
g|-7-7-7-7--------7-7-7-7---5-7-5----7-7-7-7--------7-7-7-7---5----|
d|---------8-5--8---------8-------8----------8-5--8---------8---8-5|
a|-----------------------------------------------------------------|
E|-----------------------------------------------------------------|

e|-----------------------------------------------------------------|
b|-----------------------------------------------------------------|
g|-5-5-5-5--------5-5-5-5---8-7-5----8-8-8-8-8-7-7-7-7-7-----------|
d|---------8-5--8---------8-------8--------------------------------|
a|-----------------------------------------------------------------|
E|-----------------------------------------------------------------|

Ahí ustedes ven cuantas veces cada nota y lo repiten cuantas veces
sea necesario :)

Los acordes son:
G
Nos mataría si reinara el silencio
A#
Si uno solo pudiera gritar
C
Por que puede despertar otras mentes
D#                         D
Y el negocio podría quebrar

Y el coro:
Bb
Divide y vencerás, divide y vencerás
D
Nos vendieron sus viejas consignas
G
Divide y vencerás, divide y vencerás
D#                                D
Nos vendieron sus viejas consignas

Ahora, al final hace un agregado al punteo del principio, que
vendría siendo algo así:

e|--------------------------------------------------|
b|--------------------------------------------------|
g|---5-7---5-7---5-7---5---5-------5---5------------|
d|-8-----8-----8-----8---8---8-5-8---8---8-5-8------|
a|--------------------------------------------------|
E|--------------------------------------------------|

e|--------------------------------------------------|
b|--------------------------------------------------|
g|-5-7-8-8-8-7-8-7-8-8-8-7-8-7----10-10-10-10-10-7~-|
d|--------------------------------------------------|
a|--------------------------------------------------|
E|--------------------------------------------------|

y eso es todo, escuchen bien el tema para hacer calzar las notas,
creo que está correcto, sugerencias o reclamos, haganlos saber, salud!!

            
            
Suggest correction
Creating personal tab
Creating personal tab
You can edit any tab online and save it as your Personal.

You can edit, replace or remove any tab part or add personal notes – all changes will be seen only by you.

Personal tabs can be accessed anytime from any device, even offline.
Learn more »
Give kudos to tab author, rate the tab!
1 2 3 4 5
comments
print report bad tab
guest
Wanna post a correction for this tab? Suggest correction