Oops, an error
Loading. Please wait.

Olvidarme De Tí tab

version 2
version 2

Whole song

7 views 1 this week
no commentswrite comment
1 2 3 4 5
3 more votes to show rating
add to favorites
×
Save as Personal and add changes to this tab that will be seen only by you. Learn more ›
×
You can save this tab as Personal to edit and correct it or add notes. All changes will be seen only by you. Learn more »
launch autoscroll
font size
0
reset
how to read this tab
guitar tuner
edit
Autoscroll
slow
fast
+/-
esc
set tempo
stop
 Que hay banda esta es una transcripcion que me
paso un valedor de esta rola espero y este bien

Intro

e?--12-12-12-12--10/12--12-12-12--10-8-7-3-
B------------------------------------------
G------------------------------------------
D------------------------------------------
A------------------------------------------
E------------------------------------------

e---8-8-8-8--7/8--8-8-8--7-5-3-
B------------------------------
G------------------------------
D------------------------------
A------------------------------
E------------------------------

e?--12-12-12-12--10/12--12-12-12--10-8-8/12-7-
B---------------------------------------------
G---------------------------------------------
D---------------------------------------------
A---------------------------------------------
E---------------------------------------------

e---8-8-8-8--7/8--8-8-8--7-8-8/10-10-
B------------------------------------
G------------------------------------
D------------------------------------
A------------------------------------
E------------------------------------


Intermedio x2

e---8-8-8-8----8/7----8-8-8---7-5-3-0-
B-------------------------------------
G-------------------------------------
D-------------------------------------
A-------------------------------------
E-------------------------------------

e---5-5-5-5---3/5---5-5-5---3-5-5/7-7-
B-------------------------------------
G-------------------------------------
D-------------------------------------
A-------------------------------------
E-------------------------------------


Segundo intermedio x4

e---12---12-10---10-8---18-17-15-15-15-
B--------------------------------------
G--------------------------------------
D--------------------------------------
A--------------------------------------
E--------------------------------------


Final

            X4            X2            X2
e---1h3-1-0---I---3H5-3-1---I---5H7-5-3---I
B-------------I-------------I-------------I
G-------------I-------------I-------------I
D-------------I-------------I-------------I
A-------------I-------------I-------------I
E-------------I-------------I-------------I


            X4            X2
e---1h3-1-0---I---3H5-3-1---I--5H7-5-3--4/9-9-9-8-7--7/8--6/7/8-10-
B-------------I-------------I--------------------------------------
G-------------I-------------I--------------------------------------
D-------------I-------------I--------------------------------------
A-------------I-------------I--------------------------------------
E-------------I-------------I--------------------------------------

bueno estodo lo que lleva la rola,camaras escuchenla chido
para que le agarren los tiempos.

un saludo a EDGAR que me paso esta buena rola
 camaras y que viva el RoCk UrBanO////
Suggest correction
Creating personal tab
Creating personal tab
You can edit any tab online and save it as your Personal.

You can edit, replace or remove any tab part or add personal notes – all changes will be seen only by you.

Personal tabs can be accessed anytime from any device, even offline.
Learn more »
Give kudos to tab author, rate the tab!
1 2 3 4 5
comments
print report bad tab
guest
Wanna post a correction for this tab? Suggest correction