Oops, an error
Loading. Please wait.

Bajo El Sol bass

25 views 1 this week
no commentswrite comment
1 2 3 4 5
3 more votes to show rating
add to favorites
×
Save as Personal and add changes to this tab that will be seen only by you. Learn more ›
×
You can save this tab as Personal to edit and correct it or add notes. All changes will be seen only by you. Learn more »
launch autoscroll
font size
0
reset
guitar tuner
edit
Autoscroll
slow
fast
+/-
esc
set tempo
stop
Intro

G------------
D------------
A-5h0--------
E------------

G--------------------------------------------
D---------4-5-7-7777-4-4444-7-9-555-5-4---4--
A-0h5-5555------------------------------7----
E--------------------------------------------(x2)

Verso (x2) 'Otra vez con la....'

G----------------------------------------------------------
D------------44-55-77777777-44444444-7-9-55555555-5-4--4---
A-5-555555555-----------------------------------------7--7-
E----------------------------------------------------------

G---------------------------7h9-9999-7--------------------------------
D------------44-55-77777777------------9-------7h9-55555555-5-4---4---
A-5-555555555---------------------------9999999-----------------7---7-
E---------------------------------------------------------------------

Estribillo 'Una y otra vez....'

G--------------------------------------------------------
D--------------------------------------------------------
A-2-222-5-------5-2-222-5-------5-2-222-5----------------
E---------2-222-----------2-222-----------2-222-5-555555-

Verso (x1)'Otra vez voy...'

Estribillo...(x2)
Los engancha así......
G---------------
D---------------
A---------------
E---5-3-2-------

Solito de guitarra (con base de verso)

G----------------------------------------------------------
D------------44-55-77777777-44444444-7-9-55555555-5-4--4---
A-5-555555555-----------------------------------------7--7-
E----------------------------------------------------------

G---------------------------7h9-9999-7--------------------------------
D------------44-55-77777777------------9-------7h9-55555555-5-4---4---
A-5-555555555---------------------------9999999-----------------7---7-
E---------------------------------------------------------------------

Estribillo (x1)

Solo de guitarra (tambien con base de verso)

G----------------------------------------------------------
D------------44-55-77777777-44444444-7-9-55555555-5-4--4---
A-5-555555555-----------------------------------------7--7-
E----------------------------------------------------------

G---------------------------7h9-9999-7--------------------------------
D------------44-55-77777777------------9-------7h9-55555555-5-4---4---
A-5-555555555---------------------------9999999-----------------7---7-
E---------------------------------------------------------------------

En esta parte de la cancion (para que se ubiquen) queda la guitarra lenta sola,
y el bajo engancha asi:

G------------------------------------------------------------------
D--4-44-4-7-9-5-55-5-4---4-------4-5-7-77--4-44-4-7-9-5-55-5-4-4---
A-5--------------------7---5-55-5--------5--------------------7--7-
E------------------------------------------------------------------

Verso 'Otra vez con la....'

G----------------------------------------------------------
D------------44-55-77777777-44444444-7-9-55555555-5-4--4---
A-5-555555555-----------------------------------------7--7-
E----------------------------------------------------------

G--------------------------------12---14-12------------------------------------
D------------44-55-77777777h14-14---14-----14-12h4-4444444-7-9-5555555-5-4--4--
A-5-555555555-------------------------------------------------------------7--7-
E------------------------------------------------------------------------------

G----------------------------------------------------------
D------------44-55-77777777-44444444-7-9-55555555-5-4--4---
A-5-555555555-----------------------------------------7--7-
E----------------------------------------------------------

G-----------------------------------------------------------
D------------44-55-77777777-44444444-7-9-5555-7-7-7-5-4-----
A-5-555555555-------------------------------------------5---
E-----------------------------------------------------------

Muy buena cancion, disfrutenla!!!

            
            
Suggest correction
Creating personal tab
Creating personal tab
You can edit any tab online and save it as your Personal.

You can edit, replace or remove any tab part or add personal notes – all changes will be seen only by you.

Personal tabs can be accessed anytime from any device, even offline.
Learn more »
Give kudos to tab author, rate the tab!
1 2 3 4 5
comments
print report bad tab
guest
Wanna post a correction for this tab? Suggest correction