Oops, an error
Loading. Please wait.

El Probador chords

19 views 3 this week
no commentswrite comment
1 2 3 4 5
3 more votes to show rating
add to favorites
×
Save as Personal and add changes to this tab that will be seen only by you. Learn more ›
×
You can save this tab as Personal to edit and correct it or add notes. All changes will be seen only by you. Learn more »
launch autoscroll
font size
0
reset
transpose
0
reset
simplify chords
display chords
guitar tuner
edit
Autoscroll
slow
fast
+/-
esc
set tempo
stop
Strumming
There is no strumming pattern for this song yet. and get +5 IQ
Intro:

e ---3-------3-------3-3---3---5---3-------3--------------------------------------------------
B -------5-------5------------------------5------------------------------------------------------
G -------------------------------------------------------------------------------------------------
D -------------------------------------------------------------------------------------------------
A -------------------------------------------------------------------------------------------------
E -------------------------------------------------------------------------------------------------

                                                x2
e -----------------3------------------------------------------------------------------------------
B --------1---5-----------------------------------------------------------------------------------
G ---2--------------------------------------------------------------------------------------------
D -------------------------------------------------------------------------------------------------
A -------------------------------------------------------------------------------------------------
E -------------------------------------------------------------------------------------------------


Este Intro va acompañado por Segunda guitarra (A5 - G5 - F5)


A5                         G5/F5                                        D5     Em
Entró al probador (Entró al probador) (Diría Ciro) y agarró la minifalda
A5             G5/F5             D5     Em
luego la calzó y después giró la espalda
A5                   G5/F5              D5        Em
llamó al vendedor quiso que le dé un consejo
A5           G5/F5            D5     Em
quería saber si el cuero era viejo. Nooo!!!


Intro x2: Acompañado por segunda guitarra (A5 - G5 - F5)


D5                F5*
El muchacho no pudo pensar,                        e -----------------
       C5                            Em              B -----------------
comenzó a transpirar se le iba a dar.            F5*=      G ---------10-----
D5                F5*                              D ---------10-----
Ella vio una adecuada reacción                        A -----------------
       C5                                    E ---8-------------
y arrasó al vendedor
               A5
dentro del probador.


F5*/(D5)A5                        (D5)=       Quiere decir optativo.
      Sin perder tiempo                     O sea que puede ir o no...
F5*/A5                                     de las 2 maneras suena bien.
      aprovecharon
F5*/A5
      la hicieron corta
F5*/A5
      y se borraron.


Intro x2: Acompañado por segunda guitarra (A5 - G5 - F5)

Y... todo de nuevo.

Hola gente cómo va. Soy yo desde Olavarría otra vez después de tanto tiempo. 
Acá les dejo el 1er tema de
Katarro Vandaliko que saco. Va... en realidad no es un tema de Katarro, 
sino que es de Virus (Muy buena
Banda de rock de la década de los 80')
Se lo quería dedicar a mi querida madrina Cecilia, ya que a 400 km. 
cuando necesito algún consejo, 
ella siempre está.
Espero que les sirva. Y ya saben duda, puteada, sugerencia, 
chica que me quiera conocer, y/o pasar
un buen rato, que me mande un mail.
Pd: Ahh... me olvidaba. Si alguien de acá de Olavarría, sabe tocar batería o bajo, y quiera formar
una banda Punk. Que me mande un mail.
                                                     Darío FACHI77A Keegan.

            
            
Suggest correction
Creating personal tab
Creating personal tab
You can edit any tab online and save it as your Personal.

You can edit, replace or remove any tab part or add personal notes – all changes will be seen only by you.

Personal tabs can be accessed anytime from any device, even offline.
Learn more »
Give kudos to tab author, rate the tab!
1 2 3 4 5
comments
print report bad tab
guest
Wanna post a correction for this tab? Suggest correction