Oops, an error
Loading. Please wait.

Si Te Encontrara chords

29 views 1 this week
no commentswrite comment
1 2 3 4 5
3 more votes to show rating
add to favorites
×
Save as Personal and add changes to this tab that will be seen only by you. Learn more ›
×
You can save this tab as Personal to edit and correct it or add notes. All changes will be seen only by you. Learn more »
launch autoscroll
font size
0
reset
transpose
0
reset
display chords
guitar tuner
edit
Autoscroll
slow
fast
+/-
esc
set tempo
stop
Strumming
There is no strumming pattern for this song yet. and get +5 IQ
INTRO:

E:---------------------------------------------
B:-----------------------------3-5-3--3-5-3-3--
G:-0-4-0-5-4--0-4-0-5-4-0-4-4-4-4----4-4---4---
D:---------------------------------------------   (X2)
A:---------------------------------------------
E:---------------------------------------------

E:----------------------------------------------
B:---5----7-------------------------------------
G:--5--5-7--7-------------5-5-5-4-4-4-2-2-2-0---
D:------------5-5-4-2-2-0-----------------------
A:----------------------------------------------
E:----------------------------------------------

PARA QUE SUENE MEJOR SE TOCA CON ACORDES DE 5º
             G
Si te encontrara,
                          Bm
Si te encontrara yo se seguro

te diria, lo que queria
G
 Que vos hicieras
                         Bm
Que vos hicieras para que esto
no ocurriera, si te encontrara
 C             D      G          Em
  Si te encontrara seria mi ilusion
 C            D        G           Em
  Que no te fueras devuelta sin razon
 C             D       G          Em
  Si te encontrara te pediria perdon
 C           Bm         Am         G
  Por los errores que ayer yo cometi.


          G
Yo te buscaba
                    Bm
Yo te buscaba y yo no
me imaginaba , que vos estabas
 G                     B
  Que vos estabas y que siempre
me esperabas, vos me esperabas...
 C         D          G           Em
  Ahora que te encontre me pregunte
 C             D        G              Em
  cual de los dos seria el que se perdio
 C          D        G           Em
  y la respuesta yo ya la encontre
 C             Bm      Am
  el que no estaba contigo
     G
era yo......

INTRO

FINAL :(C,D,G,Em) X3   C,Bm,Am,G

            
            
Suggest correction
Creating personal tab
Creating personal tab
You can edit any tab online and save it as your Personal.

You can edit, replace or remove any tab part or add personal notes – all changes will be seen only by you.

Personal tabs can be accessed anytime from any device, even offline.
Learn more »
Give kudos to tab author, rate the tab!
1 2 3 4 5
comments
print report bad tab
guest
Wanna post a correction for this tab? Suggest correction