Oops, an error
Loading. Please wait.

Generación Que Danza bass

17 views 1 this week
no commentswrite comment
1 2 3 4 5
3 more votes to show rating
add to favorites
×
Save as Personal and add changes to this tab that will be seen only by you. Learn more ›
×
You can save this tab as Personal to edit and correct it or add notes. All changes will be seen only by you. Learn more »
launch autoscroll
font size
0
reset
guitar tuner
edit
Autoscroll
slow
fast
+/-
esc
set tempo
stop
Bueno aqui esta el bass
pa que lo chequen y bueno a mí mi gusto se oye bien ok
Espero que les sirva


INTRO

E----------------------------------------------------------------|
A---5--3--5----5--3?5s8-8-8-----------2?0--2-------2--0--2s8-8-8-|
D----------------------------------------------------------------|
G----------------------------------------------------------------|


Tu amor me enseña a danzar.......

E----------------------------------------------------------------|
A---5--3--5----5--3?5s8-8-8-----------2?0--2-------2--0--2s8-8-8-|
D----------------------------------------------------------------|
G----------------------------------------------------------------|


Y con danza daremos gracias

E---3-3--3---3--3-3--3---3---------------------------------------|
A---------------------------1s5-5-5?-5---5-?5-5--5---5-----------|
D----------------------------------------------------------------|
G----------------------------------------------------------------|


Tu gloria enseña a gritar.....

E----------------------------------------------------------------|
A---5--3--5----5--3?5s8-8-8-----------2?0--2-------2--0--2s8-8-8-|
D----------------------------------------------------------------|
G----------------------------------------------------------------|


Y con gritos te damos la gloria

E---3-3--3---3--3-3--3---3---------------------------------------|
A---------------------------1s5-5-5?-5---5-?5-5--5---5-----------|
D----------------------------------------------------------------|
G----------------------------------------------------------------|


Es el desbordar, de un libre corazón......

E----------------------------------------------------------------|
A-5-5--5-5--5-5?-5-5?-5----5-----7-7--7-7--7-7?-7-7-?7----7------|
D----------------------------------------------------------------|
G----------------------------------------------------------------|


Y hoy te vemos Dios, Callar es imposible......
Numero entre paréntesis son las veces que se repiten

E--3-3--3-3--3-3--3-3--3----3---------5(16)----------------------|
A----------------------------------------------------------------|
D----------------------------------------------------------------|
G----------------------------------------------------------------|


CORO

Seremos la Generación que danza.......

E-------------------3(16)----------------------------------------|
A?5(16)----7(16)-------------5(8)s12-12(8)-----------------------|
D----------------------------------------------------------------|
G----------------------------------------------------------------|


Y en el solo de Guitarra se toca igual que el coro

Y luego se que la batería sola ahí no se toca nada
Asta que entra al pre-coro y nadamas se marca el tono
Ok
Bueno espero y les sirva
Y ya saben cualquier duda
Ahí esta mi e-mail
Dios los Bendiga

            
            
Suggest correction
Creating personal tab
Creating personal tab
You can edit any tab online and save it as your Personal.

You can edit, replace or remove any tab part or add personal notes – all changes will be seen only by you.

Personal tabs can be accessed anytime from any device, even offline.
Learn more »
Give kudos to tab author, rate the tab!
1 2 3 4 5
comments
print report bad tab
guest
Wanna post a correction for this tab? Suggest correction