Oops, an error
Loading. Please wait.

Lágrimas De Adoración tab

by Kenosis
19 views 1 this week
no commentswrite comment
1 2 3 4 5
3 more votes to show rating
add to favorites
×
Save as Personal and add changes to this tab that will be seen only by you. Learn more ›
×
You can save this tab as Personal to edit and correct it or add notes. All changes will be seen only by you. Learn more »
launch autoscroll
font size
0
reset
how to read this tab
guitar tuner
edit
Autoscroll
slow
fast
+/-
esc
set tempo
stop
INTRO: |A E A| |E D| |D E| |E|

e|----------------------------|
B|----------------------------|
G|----------------------------|
D|-11---11-12-14--12-11----11-|
A|----------------------14----|
E|----------------------------|

e|-----------------------|
B|-----------------------|
G|-----------------------|
D|-11-12-14--12-11----12-|
A|-----------------14----|
E|-----------------------|

e|--------------------|
B|--------------------|
G|--------------------|
D|-12-14-15--12-15-14-|
A|--------------------|
E|--------------------|

e|-------------------------|
B|-------------------------|
G|-------------------------|
D|-14-12-11----------------|
A|----------14-12-11-12-14-|
E|-------------------------|


A           E             F#m     D
 eres el motivo de mi vida Jesús
A           E             F#m     D
 mi alma anhela alabarte oh Dios
A           E                  F#m            D
 mis labios pronuncian tu nombre con tanta pasion
    A            E
 sanaste mi corazón

D             E
 todo lo que tengo hoy
F#m           D
 todo lo que soy
A                    E
 lo ofresco en sacrificio a tus pies
      D
mi señor

:::::::::CORO::::::::

A       E         F#m  D
lagrimas de adoracion
       A          E
brotan de mi corazon
   F#m           D                 A   E
al borde de tu Trono las ofrezco señor
       F#m    E   D  A
como ofrenda de amor

:::::::::SOLO::::::::

e|---------------------------------|
B|-14b-14b-----------------14b-----|
G|-16b-16b-16-14-16---16-----16-14-|
D|---------------------------------|
A|---------------------------------|
E|---------------------------------|

e|----------------------------------|
B|----------------------------------|
G|-14-------------------------------|
D|----16-14-16-14-------------------|
A|----------------16-14-16-14-------|
E|----------------------------16/17-|

e|------------------------------|
B|----------------18b-----------|
G|----------------20b-20v-18-18-|
D|------------------------------|
A|-14-16/17-16------------------|
E|-------------17---------------|

A
mis manos levanto a ti
E
no puedo callarme señor
A         E           D
quiero gritar que te amo

            O.V.I.C.E
 "I.D.E.A" Iglesia Dios Es Amor
La Fria Edo. Tachira - VENEZUELA
                     E
tu amor llena mi corazón
Suggest correction
Creating personal tab
Creating personal tab
You can edit any tab online and save it as your Personal.

You can edit, replace or remove any tab part or add personal notes – all changes will be seen only by you.

Personal tabs can be accessed anytime from any device, even offline.
Learn more »
Give kudos to tab author, rate the tab!
1 2 3 4 5
comments
print report bad tab
guest
Wanna post a correction for this tab? Suggest correction