Oops, an error
Loading. Please wait.

Alegría De Vivir tab

by Ketama
241 views 1 this week
no commentswrite comment
1 2 3 4 5
3 more votes to show rating
add to favorites
×
Save as Personal and add changes to this tab that will be seen only by you. Learn more ›
×
You can save this tab as Personal to edit and correct it or add notes. All changes will be seen only by you. Learn more »
launch autoscroll
font size
0
reset
how to read this tab
guitar tuner
edit
Autoscroll
slow
fast
+/-
esc
set tempo
stop
Para tocar la siguiente cancion se usan 2 guitarras, a veces 3, pero aquí
solo se ocupan 2. El solo lo encontre complicado asi que se los debo.
Es una cancion muy padre y no muy difícil, esta version creo que es la de
la película sobrevivire; la de Ray es un poco distinta. En el intro toca
un teclado, pero aquí la segunda guitarra hace lo que el teclado y se oye
bien aunque mas grave.


INTRO:

Gtr. 1
  Bm7 A6/B                       Bm7 A6/B
e|-2----2--------------------------2--0------------------------||
B|-3----2--------------------------3--2------------------------||
G|-2----2--------------------------2--2------------------------||
D|-------------------------------------------------------------||
A|-2----2--------------------------2--2------------------------||
E|-------------------------------------------------------------||
Gtr. 2                                                         ||
e|-2---------------0---------0-----2-------------0---------0---||
B|-3---------0-2-3-----1-2-3---0---3-------0-2-3-----1-2-3---0-||
G|-2-------------------------------2---------------------------||
D|-------------------------------------------------------------||
A|-2-------------------------------2---------------------------||
E|-------------------------------------------------------------||
Gtr. 1
   G       A7         Bm7     Fm7      Em      A                Fm7   Bm7
e|---------0-----------2-------0----0----------------------------0-----2-||
B|-0-------2-----------3-------2----2--3-------2-----------------2-----3-||
G|-2-------0-----------2-------2----2--4-------2-----------------2-----2-||
D|-0-----------------------------------5-------2-------------------------||
A|---------0-----------2-----------------------0-----------------------2-||
E|-3---------------------------2----2--0-------------------------2-------||
Gtr. 2                                                                   ||
e|-------0---------2-------2---5/7-5---------0---------------------------||
B|-0h2-3---1/2-3-4-----3/5-------------0h2-3---1/2--2p0----------0-2-3-0-||
G|------------------------------------------------------2-0-2--2---------||
D|-----------------------------------------------------------------------||
A|-----------------------------------------------------------------------||
E|-----------------------------------------------------------------------||


VERSO: (rasgueando)
G               A7              Bm7              F#m7
  Y el infierno    de tu gloria     ha pasao por  mi
Em                A7           F#m7         Bm7
  Ahora siento y pienso adentro     alegria de  vivir
G         A7          Bm7                 F#m7
  Alegria    de vivir     cuando estas cerca   de mi
Em                A7           F#m7                 Bm7
  Ahora siento y pienso adentro     lo que habra dentro de mi


ESTRIBILLO:
Bm7               F#m7      Bm7                 F#m7
  Lo que habra dentro de mi     lo que habra dentro de mi
Em              A7              F#m7           Bm7
  Yo la busco y no la encuentro      mi manera de  sentir
            F#m7        Bm7           F#m7
  Mi manera de   sentir     mi manera de   sentir
Em*             A7*             F#m7*        Bm7*
  Yo la busco y no la encuentro      alegria de  vivir
G             A7              Bm7              F#m7
  El infierno    de tu gloria     ha pasao por mi
Em                A7            F#m7         Bm7
  Ahora siento y pienso adentro      alegria de  vivir

SOLO:

G  A7  Bm7  F#m7  Em  A7  F#m7  Bm7  (2 VECES)

SE REPITE EL ESTRIBILLO. (hasta: ?yo la busco....  alegria de vivir?)

LUEGO:  G  A7  Bm7  F#m7 (pueden hacer el requinto del intro)

FINAL:
Em                A7            F#m7           Bm7  A6/B
  Ahora siento y pienso adentro,    la alegria deeeeee   vivir

Bm7 A6/B: Se repiten como en el intro hasta el final.


ACORDES UTILIZADOS:
Bm7:   X24232
A6/B:  222222
G:     320003   (tambien:   320033)
A7:    X02020
Em:    005430   (si quieren: 022000)
F#m7:  242222
A:     X02220

*: un solo rasgueo
/: deslizar el dedo presionando los trastes.
h: efecto ?hammer"
p: efecto ?pull off?

cualquier dudua, o comentario, escriban a: aquiles_man@

            
            
Suggest correction
Creating personal tab
Creating personal tab
You can edit any tab online and save it as your Personal.

You can edit, replace or remove any tab part or add personal notes – all changes will be seen only by you.

Personal tabs can be accessed anytime from any device, even offline.
Learn more »
Give kudos to tab author, rate the tab!
1 2 3 4 5
comments
print report bad tab
guest
Wanna post a correction for this tab? Suggest correction