Oops, an error
Loading. Please wait.

Aserejé tab

by Ketchup
59 views 3 this week
no commentswrite comment
1 2 3 4 5
3 more votes to show rating
add to favorites
×
Save as Personal and add changes to this tab that will be seen only by you. Learn more ›
×
You can save this tab as Personal to edit and correct it or add notes. All changes will be seen only by you. Learn more »
launch autoscroll
font size
0
reset
how to read this tab
guitar tuner
edit
Autoscroll
slow
fast
+/-
esc
set tempo
stop
[intro]

      D#m
e-----6-------------------6---------------------
B-----7-------------------7---------------------
G-----8-------------------8---------------------
D-----------------------------------------------
A-(6)---(6)-----------(6)---(6)-----------------
E-----------(6)-(9)-------------(6)-(9)--------- [4x]


[segunda guitarra con wah]

 -----------11-|-------------------------
 -9h11-9h11----|--9-9~--7--11p9----------
 --------------|----------------11~~-----
 --------------|-------------------------
 --------------|-------------------------
 --------------|-------------------------

[verso]

   D#m7
 ---6---------6---------6---------6---------
 ---7---------7---------7---------7---------
 ---6---------6---------6---------6---------
 ---8---------8---------8---------8---------
 -------------------------------------------
 -------------------------------------------


Mira lo que se avecina a la vuelta de la esquina
viene Diego rumbeando.

Con la luna en las pupilas y en su traje aguamarina
van restos de contrabando.


[pre-coro]

        G#m                         C#7
Y donde más no cabe un alma alli se mete a darse caña

    A#m7                 D#m7
poseído por el ritmo ragatanga...

     G#m                      C#7
Y el DJ que lo conoce toca el himno de las doce

     A#m7                     G#m7     
para Diego la canción más deseada

     G#m                    B
Y la baila, y la goza, y la canta...


[coro]

 [high treble con reverb] [NOTA: en el coro se tocan las cuerdas continuamente]

  D#m              C#                       B                          G#m    A#
 ---------------------|------------------------|--------------------------------------
 ---------------------|------------------------|--------------------------------------
 ---------------------|------------------------|--------------------------------------
 ---------------------|---------6--------------|---------4----------------------------
 -6--6-----6--6666-4--|--4--6/8----4--4444--2--|--2--4/6----2--2222-------------------
 ------6-9------------|------------------------|-----------------------44445556-------

  Y ASEREJE JA DEJE DEJEBE TU DEJEBE DESEBI UNO UBA AMAJABI AN DE BUGI AN DE WINIDIBI


[el intro de nuevo]

      D#m
e-----6-------------------6---------------------
B-----7-------------------7---------------------
G-----8-------------------8---------------------
D-----------------------------------------------
A-(6)---(6)-----------(6)---(6)-----------------
E-----------(6)-(9)-------------(6)-(9)--------- [2 1/2x]


[segunda guitarra de nuwvo con wah]

 -----------11-|-------------------------
 -9h11-9h11----|--9-9~--7--11p9----------
 --------------|----------------11~~-----
 --------------|-------------------------
 --------------|-------------------------
 --------------|-------------------------


[verso]

   D#m7
 ---6---------6---------6---------6---------
 ---7---------7---------7---------7---------
 ---6---------6---------6---------6---------
 ---8---------8---------8---------8---------
 -------------------------------------------
 -------------------------------------------


No es cosa de brujería que lo encuentre todos los días
por donde voy caminando
Diego tiene chulería y es el punto de alegría rastafari afro-gitano


        G#m                         C#7
Y donde más no cabe un alma alli se mete a darse caña

    A#m7                 D#m7
poseído por el ritmo ragatanga...

     G#m                      C#7
Y el DJ que lo conoce toca el himno de las doce

     A#m7                     G#m7     
para Diego la canción más deseada

     G#m                    B
Y la baila, y la goza, y la canta...


[segundo coro]

  D#m              C#                       B                          G#m    A#
 ---------------------|------------------------|--------------------------------------
 ---------------------|------------------------|--------------------------------------
 ---------------------|------------------------|--------------------------------------
 ---------------------|---------6--------------|---------4----------------------------
 -6--6-----6--6666-4--|--4--6/8----4--4444--2--|--2--4/6----2--2222-------------------
 ------6-9------------|------------------------|-----------------------44445556-------

  Y ASEREJE JA DEJE DEJEBE TU DEJEBE DESEBI UNO UBA AMAJABI AN DE BUGI AN DE WINIDIBI [3x]


[el puente]


D#m7  //      //       //       //

ananana nanana nanananana  ananana nananananau
ananana nanana nananananan anana-a-i-a-i-a-i-a-i-o  [2x]


[coro final]

  D#m              C#                       B                          G#m    A#
 ---------------------|------------------------|--------------------------------------
 ---------------------|------------------------|--------------------------------------
 ---------------------|------------------------|--------------------------------------
 ---------------------|---------6--------------|---------4----------------------------
 -6--6-----6--6666-4--|--4--6/8----4--4444--2--|--2--4/6----2--2222-------------------
 ------6-9------------|------------------------|-----------------------44445556-------

  Y ASEREJE JA DEJE DEJEBE TU DEJEBE DESEBI UNO UBA AMAJABI AN DE BUGI AN DE WINIDIBI [9x]


disfruten!!!  Preguntas o comentarios mandenme un e-mail

            
            
Suggest correction
Creating personal tab
Creating personal tab
You can edit any tab online and save it as your Personal.

You can edit, replace or remove any tab part or add personal notes – all changes will be seen only by you.

Personal tabs can be accessed anytime from any device, even offline.
Learn more »
Give kudos to tab author, rate the tab!
1 2 3 4 5
comments
print report bad tab
guest
Wanna post a correction for this tab? Suggest correction