Oops, an error
Loading. Please wait.

La Procesión tab

version 2
version 2

Whole song

43 views 1 this week
no commentswrite comment
1 2 3 4 5
3 more votes to show rating
add to favorites
×
Save as Personal and add changes to this tab that will be seen only by you. Learn more ›
×
You can save this tab as Personal to edit and correct it or add notes. All changes will be seen only by you. Learn more »
launch autoscroll
font size
0
reset
how to read this tab
guitar tuner
edit
Autoscroll
slow
fast
+/-
esc
set tempo
stop
Se repite dos veces...

A7

E----------------------------------------------------------
B------------------------------------------8---------------
G--------5-----------5-----------5-----5---------5---------
D-----7-----7-----7-----7-----7-----7--------7------7-----
A--5----------5------------5---------------------------5---
E-----------------------------------------------------------

APLAUSOS.....


.....A7................................................G7

E----------------------------------------------------------
B----------------------------------------------------------
G--------5-----------5-----------5------------3-----------
D-----7-----7-----7-----7-----7-----7------5---5----------
A--5----------5------------5-------------3--------5--------
E----------------------------------------------------------- se repite

Me llevo el charro, me llevo la guitarra
Me llevo la botella pero no me la llevo a ella...


Rasgueado
.............G7.................................A7
No es que no quiera decirte lo que siento
.............G7.................................A7
No es que no pueda, si te digo te miento


........G7..............A7
Parece que no pero sí
........G7..............A7
No te miré pero te ví

...........G7...................................A7
Ay, si pudieras ver lo que no demuestro!
...........G7.....................................Dm7.....G7....A7...Dm7
Ay, si la vieras! La procesión va por dentro...


Acordes

A7------575655
G7------353433
Dm7-----057545

            
            
Suggest correction
Creating personal tab
Creating personal tab
You can edit any tab online and save it as your Personal.

You can edit, replace or remove any tab part or add personal notes – all changes will be seen only by you.

Personal tabs can be accessed anytime from any device, even offline.
Learn more »
Give kudos to tab author, rate the tab!
1 2 3 4 5
comments
print report bad tab
guest
Wanna post a correction for this tab? Suggest correction