Oops, an error
Loading. Please wait.

Yo No Sé chords

by Kilombo
11 views 1 this week
no commentswrite comment
1 2 3 4 5
3 more votes to show rating
add to favorites
×
Save as Personal and add changes to this tab that will be seen only by you. Learn more ›
×
You can save this tab as Personal to edit and correct it or add notes. All changes will be seen only by you. Learn more »
launch autoscroll
font size
0
reset
transpose
0
reset
display chords
guitar tuner
edit
Autoscroll
slow
fast
+/-
esc
set tempo
stop
Strumming
There is no strumming pattern for this song yet. and get +5 IQ
INTRO:
------------------------------------------------------------------/
------------------------------------------------------------------/
--------------------------0-2-0-0-----------0------------/
--------------0-2-3-------------------3-3------3-2----/
--0-2-3-----------------------------------------------------/
-----------------------------------------------------------------/


         C           F
Yo no se, como fue,
        G F    G   C
que yo me enamoré de ti.
         C           F
Solo sé, que al verte,
           G F  G     C
no tengo idea que decir.
              C           F
Mi corazón, late mas,
           G F           G   C
Cada vez que estoy frente a ti.
            C             F
Y te miro y no me miras,
           G      F      G        C
Y el corazón se me parte en mil.


C    F    G    F    G    C
C    F    G    F    G    C


             C                 F
Pero el tiempo, así pasó,
            G F       G        C
Y nuestra relación se estancó.
            C           F
Yo no sé, que hacer,
          G    F      G      C
Solo que no te quiero perder.


------------------------------------------------------------------/
------------------------------------------------------------------/
--------------------------0-2-0-0-----------0------------/
--------------0-2-3-------------------3-3------3-2----/
--0-2-3-----------------------------------------------------/
-----------------------------------------------------------------/

           C           F
Y al final, te perdí,
          G F  G      C
Por no saber que decir.
           C          F
Tonto fui, te deje ir,
        G F    G        C
Pero mujeres hay por mil.

G F    G       C
Suggest correction
Creating personal tab
Creating personal tab
You can edit any tab online and save it as your Personal.

You can edit, replace or remove any tab part or add personal notes – all changes will be seen only by you.

Personal tabs can be accessed anytime from any device, even offline.
Learn more »
Give kudos to tab author, rate the tab!
1 2 3 4 5
comments
print report bad tab
guest
Wanna post a correction for this tab? Suggest correction