Oops, an error
Loading. Please wait.

Una Vez Más tab

version 1
version 1

Whole song

38 views 1 this week
no commentswrite comment
1 2 3 4 5
3 more votes to show rating
add to favorites
×
Save as Personal and add changes to this tab that will be seen only by you. Learn more ›
×
You can save this tab as Personal to edit and correct it or add notes. All changes will be seen only by you. Learn more »
launch autoscroll
font size
0
reset
how to read this tab
guitar tuner
edit
Autoscroll
slow
fast
+/-
esc
set tempo
stop
esta rola ta shida pa tokarla con dos weyes con acutikas en el camion Xd
jaja ai les va


---------primera guitarra---------

*INTRO:

E|--4-4-4--4-4-4--5-5-5--4-4-4--------------2-2-2--4-4-4-|
B|-----------------------------5-5-5--5-5-5--------------| x3
G|-------------------------------------------------------|

..EL SABE DE SU ERROR..
E|--4-4-4--4-4-4--5-5-5--4-4-4--------------2-2-2--4-4-4-|
B|-----------------------------5-5-5--5-5-5--------------| x6
G|-------------------------------------------------------|


*PRIMER INTERMEDIO:
E|--4--4-5-7-7-4--4-5-7--7-5-4--------4--5---------------|
B|-----------------------------5--5ph6-------------------|
G|-------------------------------------------------------|

 ..EN SU MENTE SIEMPRE ESTAS:
E|--4-4-4--4-4-4--5-5-5--4-4-4--------------2-2-2--4-4-4-|
B|-----------------------------5-5-5--5-5-5--------------| x4
G|-------------------------------------------------------|


*segundo intermedio: (es casi igual qe el primero)

E|--4--4-5-7-7-4--4-5-7--7-5-4---------4------5----4----------|
B|-----------------------------5--5ph6---5ph6-----------------|
G|------------------------------------------------------------|


*despues sigue  se oye asi mas agudo el asunto

e|--12-11-------12-11-----------------------------|
b|--------10-10-------10-10ph12/10--10-11-12-10---|
g|------------------------------------------------|


e|--12-11-------12-11-----------------------------|
b|--------10-10-------10-10ph12/10--10ph12/10-----|
g|------------------------------------------------|

*AKI TIENEN QE PONER MUCHA ATENCION .PK ACABAN LAS 16 VECES.
 PERO SIGUE LO MISMO PERO CON OTRA  LA CANCION xD

   aaaaaaaaaaaaahhhhhhh !!.. una vez maas !!!....
e|---12-11-------|
b|---------10----| x16
g|---------------|


e|---12-11-----12-11-----12-11------------------------|
b|---------10--------10--------10------10-11--12------| X6
g|----------------------------------------------------|


*Y AKABA ASI:
e|---12-11-----12-11-----12-11------------------------|
b|---------10--------10--------10------10-11--12--10--|
g|----------------------------------------------------|

---------------------------------------------------------------
-----------------SEGUNDA GUITARRA------------------------------

los acordes utilizados son:

  MI5    SI8    DO#8   LA5   SI5
e--x---|--x---|--x---|--x--|--x--| *no estoy seguro como se
b--x---|--x---|--x---|--x--|--x--|  llamen eso de las 8vas
g--x---|--x---|--x---|--x--|--x--|  pero las posisiones ahi
d--9---|--9---|--9---|--x--|--x--|  vienes y esas son xD.
a--7---|--x---|--x---|--7--|--9--|  *las "x" signifikan
e--x---|--7---|--9---|--5--|--7--|   qe se tokan tapadas


*AHI LES VA MAS O MENOS LA LETRA CON SUS ACORDES CORRESPONDIENTES x)

 los intesmedios se tokan los mismos acordes pero bajeados

intro:  MI5,SI8,DO#8,LA5 y SI5"


 MI5                 SI8             DO#8
     el sabe de su error y tambien sabe qe ya es muy tarde

      LA5  SI5 MI5            SI8              DO#8
para remediar      todo el dolor que le a causado a esa chika

    LA5   SI5 MI5               SI8              DO#8
tan especial     su suerte le cambio su fuente de amor algo qe

           LA5  SI5
nunca supo valorar.

MI5                       SI8                     DO#8
    en su mente siempre estas tu imagen  nunca se va

                     LA5    SI5
sin ti la vida ya no  es igual

MI5                   SI8                 DO#8
    tu voz qiere escuchar tu cuerpo acariciar

                  LA5   SI5
y tu voca una vez mas besar

MI5                DO#8   MI5     MI5 (con sejilla) MI5
    unaaaa vez maaaaaaas


MI5                        SI8
   aahhhhhhhhhhhhhhhhhhhhh

         DO#8                LA5,SI5
una ves maaaaaaaaaaaaaaaaaaaaaaaaaaaaaaaas

MI5           SI8                              DO#8
   y una vez maaaaaaaaaaaaaaaaaaaaaaaaaaaaaaas

         LA5,SI5
una veez maaaaaaaaaaaaaaaaaaaahs

MI5,SI8,DO#8              LA5,SI5
        aaaahhhhhhhhhhhhhhhhhhhhhh !!!!!!!!!!!!!!!!


tienen unos   faciles
ESO ES  CREO QE LA LETRA ESTE AL 100 %
PERO LOS ACORDES SI =p
SALE PUES
CUALKIER COSA A jk0_BLINK182@

y qe viva mazatlan vdd x)

            
            
Suggest correction
Creating personal tab
Creating personal tab
You can edit any tab online and save it as your Personal.

You can edit, replace or remove any tab part or add personal notes – all changes will be seen only by you.

Personal tabs can be accessed anytime from any device, even offline.
Learn more »
Give kudos to tab author, rate the tab!
1 2 3 4 5
comments
print report bad tab
guest
Wanna post a correction for this tab? Suggest correction