Oops, an error
Loading. Please wait.

Una Vez Más tab

version 2
version 2

Whole song

25 views 1 this week
no commentswrite comment
1 2 3 4 5
3 more votes to show rating
add to favorites
×
Save as Personal and add changes to this tab that will be seen only by you. Learn more ›
×
You can save this tab as Personal to edit and correct it or add notes. All changes will be seen only by you. Learn more »
launch autoscroll
font size
0
reset
how to read this tab
guitar tuner
edit
Autoscroll
slow
fast
+/-
esc
set tempo
stop
kE ondA a tOdos eS mi primer TranscRipcion.
cUalkier DudA sk_portico@
eSpero ke les guste

  G2
e|--2-----------------------------|
b|--3-------------2---------------|
g|--2------2------2------1-----2--|
d|---------2-------------2-----2--|
a|--------------------------------|
E|--------------------------------|
  G1                                                  (1)
e|-2-2-2--2-2-2--3-3-3--2-2-2-----------------------------|
b|-----------------------------3-3-3--3-3-3--5-5-5--7-7-7-|
g|--------------------------------------------------------|
d|--------------------------------------------------------|
a|--------------------------------------------------------|
E|--------------------------------------------------------|
  G1    Solo 1                                 (2)
e|-2--2-3-5--5-h-3--2--2-3-5--5-3-2-----------------|
b|----------------------------------3--3-S-5--5---7-|
g|--------------------------------------------------|
d|--------------------------------------------------|
a|--------------------------------------------------|
E|--------------------------------------------------|
  G1    Solo 2                                     (3)
e|-2--2-3-5--5-h-3--2--2-3-5--5-3-2-----------------------
b|----------------------------------3--3-S-5--5--5-S-7--7-
g|--------------------------------------------------------
d|--------------------------------------------------------
a|--------------------------------------------------------
E|--------------------------------------------------------
                                                  (3)
  ----12-10------12-10-----------------------12-10------
  -8--------8-8--------8-8-P-10-8--8-9-11-8--------8-8--
  ------------------------------------------------------
  ------------------------------------------------------
  ------------------------------------------------------
  ------------------------------------------------------
                       (3)      (4)      (5)       (6)
  -12-10--------------------|-12-10---|--------|----------|
  -------8-8-P-10--8--9--11-|-------8-|-8-9-11-|-8-9-11-8-|
  --------------------------|---------|--------|----------|
  --------------------------|---------|--------|----------|
  --------------------------|---------|--------|----------|
  --------------------------|---------|--------|----------|


Nota:
     La parte (4) de el solo 2 se repite varias veces
     y se intercala parte (5), para eso deben escuchar
     la rola para que vean cuantas veces son.
    Y con la parte (6) se termina la rola.

INTRO:
     (G1,1)
(G1,1)
El sabe de su error

y tambien sabe, que ya es muy tarde para remediar

todo el dolor, que le ha causado

a esa chica tan especial

su fuente de calor

su fuente de amor
                         (solo,1)
algo que nunca supo valorar
(G1,1)
en su mente siempre estas

tu imagen nunca se va

sin ti la vida ya no es igual

tu voz quiero escuchar

tu cuerpo acariciar
                        (solo,2)
y tu voca una vez mas besar

una! vez! mas!!!

Aaaaaaaaaaa!!!

Una vez maaaaas!!!
Hnaaaa!! veeez maaas!!!

Haaaa!! Veeez maaas!!!

Haaaaaaaaaaaa!!!


Nota:
     S  significa que debes deslisar el dedo de el traste
        que se indica primero al que sigue.
     P  significa que debes hacer un movimiento, como por
        ejemplo: 3-P-5 debes tocar correctamente en el
        traste 3 y hacer sonar el traste 5 pero sin volver
        a tocar la cuerda de nuevo.
     H  significa lo mismo que el ¨H¨, solo que al revez,
        Ejemplo: 5-H-3.

            
            
Suggest correction
Creating personal tab
Creating personal tab
You can edit any tab online and save it as your Personal.

You can edit, replace or remove any tab part or add personal notes – all changes will be seen only by you.

Personal tabs can be accessed anytime from any device, even offline.
Learn more »
Give kudos to tab author, rate the tab!
1 2 3 4 5
comments
print report bad tab
guest
Wanna post a correction for this tab? Suggest correction