Oops, an error
Loading. Please wait.

Cariño Malo tab

118 views 1 this week
no commentswrite comment
1 2 3 4 5
3 more votes to show rating
add to favorites
×
Save as Personal and add changes to this tab that will be seen only by you. Learn more ›
×
You can save this tab as Personal to edit and correct it or add notes. All changes will be seen only by you. Learn more »
launch autoscroll
font size
0
reset
how to read this tab
guitar tuner
edit
Autoscroll
slow
fast
+/-
esc
set tempo
stop
INTRO:


INTRO

--------------
--------------
--------------
--------------
----6-8-10-11-
--------------

-8--8---10-10--11-11*14-12-11-10-8*10--10-10-8--10-11-11-12-11-10-8--7-
-10-10--12-12--13-13*15-13-12-12-10*12-12-12-10-12-12-12-12-12-12-10-8-
-----------------------------------------------------------------------
-----------------------------------------------------------------------
-----------------------------------------------------------------------
-----------------------------------------------------------------------


-8--8--10-10--11-11*14-12-11-10-8*10--10-10-8--10-11-11-12-11-10-8--7-
-10-10-12-12--13-13*15-13-12-12-10*12-12-12-10-12-12-12-12-12-12-10-8-
-----------------------------------------------------------------------
-----------------------------------------------------------------------
-----------------------------------------------------------------------
-----------------------------------------------------------------------


----------7-           -----------------------
-------10---           -----------------------
-----9------           -----------------------
--910-------           -9-10-9----------------
------------           ---------12-11-10------
------------           -----------------------


hoy despues de nuestro adios...>>>>>>>>>>


-12~-12--12-11-10--------12~-
-12~-12---------12--11---12~-
-12~-12------------------12~-
-----------------------------
-----------------------------
-----------------------------


hoy volvi a verte cariño malo...>>>>>>>>

1º---12-11-12---15---19~--------
2º---12-12-12---15---19~--------
3º------------------------------

y... se ve con tu reir ...>>>>>>>>

----7---------------------------
----7--10-9-7--------12-10------
----8---------10-9---11-11------
----9---------------------------
----9---------------------------
----7---------------------------

que aun no sabes cuanto he llorado..>>>>>>>>

-----------------
-----------------
-----------------
-9-10-9----------
--------12-11-10-
-----------------


soy sincero al confesar ...

-12~-12--12-11-10--------12~-
-12~-12---------12--11---12~-
-12~-12------------------12~-
-----------------------------
-----------------------------
-----------------------------

que aun te quiero cariño malo...

1º---12-11-12---15---19~--------
2º---12-12-12---15---19~--------
3º------------------------------

sin embargo por tu error...


----7---------------------------
----7--10-9-7--------12-10------
----8---------10-9---11-11------
----9---------------------------
----9---------------------------
----7---------------------------

tolo lo nuestro se ha terminado...


CORO:

si tu nunca fuiste fiel ...

y me fingiste aquel amor perverso ...

----------------------------------------------------------
----------------------------------------------------------
---------------------------------------------------14-15--
----------------------------------------------14-15-------
-----------------------------------------14-15------------
-12-14-15-16--18---18-16-15-14---12-14-15-----------------


--14-15-14-14------
--15-15-15-15------
--14-14-14-14------
-------------------
-------------------
-------------------

ten respeto porfavor...

-----x--x--x-------
-----x--x--x-------
-----x--x--x-------
-----x--x--x-------
-----x--x--x-------
-----x--x--x-------

 por mi cariño ...

que aun no ha muerto ...

------------------
-13--11--14-------
-12--12--14-------
------------------
------------------
------------------

CORO:

si tu nunca fuiste fiel ....

y me fingiste aquel amor perverso

------------------------------------------
------------------------------------------
----------------------------------14-15---
-----------------------------14-15--------
-----------------------14-15--------------
18-16-15-14---12-14-15--------------------


--14-15-14-14------
--15-15-15-15------
--14-14-14-14------
-------------------
-------------------
-------------------

1º-----------------------
2º-13-11--10-------------
3º-----------13-12-------

-----x--x--x-------
-----x--x--x-------
-----x--x--x-------
-----x--x--x-------
-----x--x--x-------
-----x--x--x-------

ten respeto porfavor ...

por mi cariño ...

que aun no ha muerto...


solo:


3º------------------------------------------------------------
4º-----------------------------------9-9-7-9>10-9-9-7---------
5º---------------10-9-7--6-7-------7-------------------9-7----
6º--7-9-11-12--7---------------7-9-------------------------987-


------------------------------
------------------------------
9---12-9-12-10-9-7-9------7--
--7-------------------7-9----


------------------------------    -------------------
-12-12-12-12--10-10-10-10--8--    -12-10-9-----------
-11-11-11-11--11-11-11-11--9--    ---------13-12-----
------------------------------    -------------------
------------------------------    -------------------
                                      (rapido)


si tu nunca fuiste fiel...

y me fingiste aquel amor perverso...

------------------------------------------
------------------------------------------
----------------------------------14-15---
-----------------------------14-15--------
-----------------------14-15--------------
18-16-15-14---12-14-15--------------------


--14-15-14-14------
--15-15-15-15------
--14-14-14-14------
-------------------
-------------------
-------------------

------------------
-13--11--14-------
-12--12--14-------
------------------
------------------
------------------


-----x--x--x-------
-----x--x--x-------
-----x--x--x-------
-----x--x--x-------
-----x--x--x-------
-----x--x--x-------


ten respeto porfavor...

por mi cariño ...

que aun no ha muerto ...


------------------
-13--11--14-------
-12--12--14-------
------------------
------------------
------------------


si tu nunca fuiste fiel ...

y me fingiste aquel amor perverso...

------------------------------------------
------------------------------------------
----------------------------------14-15---
-----------------------------14-15--------
-----------------------14-15--------------
18-16-15-14---12-14-15--------------------


--14-15-14-14------
--15-15-15-15------
--14-14-14-14------
-------------------
-------------------
-------------------

-------------------
--12-10-9----------
----------13-12----
-------------------


-----x--x--x-------
-----x--x--x-------
-----x--x--x-------
-----x--x--x-------
-----x--x--x-------
-----x--x--x-------


ten respeto porfavor...

por mi cariño ...

que aun ......

--x----
--7----
--8----
--9----
--9----
--7----
no ha muerto...


--3-----
--3-----
--4-----
--5-----
--5-----
--3-----


FIN


COMENTARIO:

Bueno esta cancion es muy bonita si tienen algun
problema porfa escribanme ps!! ok?
les deseo suerte ps y sigan practicando !!! bye  XxJiMyLoCoxX
Bueno me despido ojala les guste !! bye

            
            
Suggest correction
Creating personal tab
Creating personal tab
You can edit any tab online and save it as your Personal.

You can edit, replace or remove any tab part or add personal notes – all changes will be seen only by you.

Personal tabs can be accessed anytime from any device, even offline.
Learn more »
Give kudos to tab author, rate the tab!
1 2 3 4 5
comments
print report bad tab
guest
Wanna post a correction for this tab? Suggest correction