Oops, an error
Loading. Please wait.

Sólo Deja tab

by Kiya
20 views 3 this week
no commentswrite comment
1 2 3 4 5
3 more votes to show rating
add to favorites
×
Save as Personal and add changes to this tab that will be seen only by you. Learn more ›
×
You can save this tab as Personal to edit and correct it or add notes. All changes will be seen only by you. Learn more »
launch autoscroll
font size
0
reset
how to read this tab
guitar tuner
edit
Autoscroll
slow
fast
+/-
esc
set tempo
stop
MODIFICACION CARRECTA ESCRITA POR:
ELAMORENO
**********************************************************************

hola este es el solo de esta fabulosa cancion de prencipio a fin...
espero que les sirba muchisimo
ahi les va...


E---------------------------------------------------------
B-----3--5-5-3------3--10-8-7----3--5-5-3----3--5h7-5-3---
G-0h2------------0h2---------0h2---------0h2--------------
D---------------------------------------------------------
A---------------------------------------------------------
E---------------------------------------------------------


-E----------------------------------------------------------
B----3--5-5-3------3--10-8-7-----3--5-5-3-5h7-7-7-7-7-5-5h3-
G-0h2----------0h2-----------0h2----------------------------
D-----------------------------------------------------------
A-----------------------------------------------------------
E-----------------------------------------------------------


la estube estudiando y a la primera edicion le faltaba algo aqui esta lista
la correcta y lista para su uso....
ENS PRO. 2014 CIEMPRE ESTARAS EN NUESTROS CORAZONES

.
Suggest correction
Creating personal tab
Creating personal tab
You can edit any tab online and save it as your Personal.

You can edit, replace or remove any tab part or add personal notes – all changes will be seen only by you.

Personal tabs can be accessed anytime from any device, even offline.
Learn more »
Give kudos to tab author, rate the tab!
1 2 3 4 5
comments
print report bad tab
guest
Wanna post a correction for this tab? Suggest correction