Oops, an error
Loading. Please wait.

Munasq´echay tab

version 2
version 2

Whole song

22 views 1 this week
no commentswrite comment
1 2 3 4 5
3 more votes to show rating
add to favorites
×
Save as Personal and add changes to this tab that will be seen only by you. Learn more ›
×
You can save this tab as Personal to edit and correct it or add notes. All changes will be seen only by you. Learn more »
launch autoscroll
font size
0
reset
how to read this tab
guitar tuner
edit
Autoscroll
slow
fast
+/-
esc
set tempo
stop
GABRIEL TORRES (EL LUCHO) ?LA QYK?

EN LA PARTE EN DONDE APARECE 0/1/0 ES EL LIGADO QUE SE DEBE REALIZAR:
ES LA CUERDA AL AIRE LIGADO EN EL 1ER TRASTE Y SOLTAR DE NUEVO?
EN LA PARTE QUE APARECE (12) PARA TOCARLAS LAS CUERDAS:
SOLO SE DEBEN ROSAR CON EL DEDO
EN DONDE APARESE 2S4-2S7-3S7 SIGNIFICA:
DESLIZAR DE   2DO TRASTE AL 4TO(2S4)
              2DO TRASTE AL 7MO(2S7)
              3ER TRASTE AL 7MO(3S7)
                             MUNASQUETAY
INTRODUCCIÓN

   PRIMERA PARTE
     E (no5)       D           C             A      E       D
1) -3---3--3--2---2--2--0-0-0-3-0--------0-----------0--2-2-2-0/2/0--0
2) ----0--0-0----3--3-3-1-----------1-1-1-0/1/0-----0--------------3--
3) ---0--0------2--2----0-----------0-0-0----------0-----2------------
4) -2---------0---------------------------------2S4----0--------------
5) --------------------3--3-3-3-3--0-0--------------------------------
6) --------------------------------------------0---------------------0

1) ---0--(12)--
2) --0--(12)---
3) -0--(12)----             PARA ESTA PARTE SE DEBE LEER LAS
4) ------------             INDICACIONES DEL INICIO...
5) ------------
6) ------------

   SEGUNDA PARTE
     E (no5)   D           C             A      E       D
1) -3--3S7-7-2-2-2S7-7--0-0-0-3-0---------0------------0-2-2-2-0/2/0-0
2) ---0-------3---------1-----------1-1-1-0/1/0------0--------------3-
3) --0------------------0-----------0-0-0-----------0-----2-----------
4) -2--------0-----------------------------------2S4----0-------------
5) --------------------3--3-3-3-3--0-0--------------------------------
6) ---------------------------------------------0---------------------
                      E        E
1) -----------------------------------
2) -3-0-------------------------------
3) -----2V-0/2/0----------------------
4) ---------------0/2-2-2-0/2-2-2-2---
5) ---------------0/2-2-2-0/2-2-2-2---
6) -----------------------------------

Em                        D
 MUNASQUETAY TUTA PUNCHAIMASCACUNAY
           C        D      Em
 TARIS PASUSCUCUNAY UARMISITAY//BIS

      Bm              A
 ANAYCULLA ÑAINCARIN VITA
  Am        D     Em
 SOCO CULLA SINMASITA//BIS

(ACOMPAÑAMIENTO ZAMPOÑAS, Em,D,C,D,Em)

Em                         D
 MI BUEN AMOR MI ERIDA DE AMOR MI VERDAD
           C
 MI CREDO RAZON DE VIVIR
      D         Em
 MI LLUVIA DE ABRIL//BIS

           Bm            A
 GRACIAS A TI MI TRISTE VIVIR
         Am   D        Em
 PUDO CAMBIAR EN UN JARDIN//BIS

            
            
Suggest correction
Creating personal tab
Creating personal tab
You can edit any tab online and save it as your Personal.

You can edit, replace or remove any tab part or add personal notes – all changes will be seen only by you.

Personal tabs can be accessed anytime from any device, even offline.
Learn more »
Give kudos to tab author, rate the tab!
1 2 3 4 5
comments
print report bad tab
guest
Wanna post a correction for this tab? Suggest correction