Oops, an error
Loading. Please wait.

Munasq´echay bass

22 views 1 this week
no commentswrite comment
1 2 3 4 5
3 more votes to show rating
add to favorites
×
Save as Personal and add changes to this tab that will be seen only by you. Learn more ›
×
You can save this tab as Personal to edit and correct it or add notes. All changes will be seen only by you. Learn more »
launch autoscroll
font size
0
reset
guitar tuner
edit
Autoscroll
slow
fast
+/-
esc
set tempo
stop
pues les mando esta fabulosa cancion
me encantarla tocarla
dedicada a mi munasq'echay

Munasq'echay
E|--0-|---|---|----|
A|----|-5-|-3-|-7--| x2
D|----|---|---|----|
G|----|---|---|----|

agraykullay?
E|--2--2-2-|--03--0--|--3--3--|----------|--2--2-2-|--03--0--|--3--3--|---|
A|-2-2--2--|-0--0--0-|-3-3--3-|--2----2--|-2-2--2--|-0--0--0-|-3-3--3-|---|
D|---------|---------|--------|-2-4-2--2-|---------|---------|--------|-2-|
G|---------|---------|--------|----------|---------|---------|--------|---|

E|---7---7----|--2-----2--|--7----7----|--2-----2---|
A|--7-7-7-9-2-|-2-2-0-2---|-7-57-7-9-2-|-2-2-0-2----|
D|------------|---------0-|------------|---------0--|
G|------------|-----------|------------|------------|

E|--------|-0-5-7----|-7----|--7--|--5----|--5----|-77--|-77--|
A|--3-2-0-|------5-7-|--5-7-|-7-7-|-5-3-5-|-5-5-7-|---7-|-----|
D|--------|----------|------|-----|-------|-------|-----|-----|
G|--------|----------|------|-----|-------|-------|-----|-----|

E|---5-----|--5-----|
A|--5--3-5-|-5-5-7--|
D|---------|--------|
G|---------|--------|

Esta segunda parte es casi lo mismo que la primera
pero les mando las variaciones que escuche

Mi buen amor
E|--0-|---|---|----|
A|----|-5-|-3-|-7--| x2
D|----|---|---|----|
G|----|---|---|----|

Gracias a ti
E|---2----2--|--03---0--|--33--3--|------------|
A|--2-02-2-2-|-0--0-0-0-|-3--3--3-|---------2--|
D|-----------|----------|---------|-2-2-22-2-2-|
G|-----------|----------|---------|------------|

gracias a ti
E|---2---2--|--03---0--|--3------|-3--|----|
A|--2-2-2-2-|-0--0-0-0-|-3-3/5-3-|--3-|----|
D|----------|----------|---------|----|-2--|
G|----------|----------|---------|----|----|

atte. miauricio gatolar

            
            
Suggest correction
Creating personal tab
Creating personal tab
You can edit any tab online and save it as your Personal.

You can edit, replace or remove any tab part or add personal notes – all changes will be seen only by you.

Personal tabs can be accessed anytime from any device, even offline.
Learn more »
Give kudos to tab author, rate the tab!
1 2 3 4 5
comments
print report bad tab
guest
Wanna post a correction for this tab? Suggest correction