Oops, an error
Loading. Please wait.

Tomás Orujo tab

23 views 1 this week
no commentswrite comment
1 2 3 4 5
3 more votes to show rating
add to favorites
×
Save as Personal and add changes to this tab that will be seen only by you. Learn more ›
×
You can save this tab as Personal to edit and correct it or add notes. All changes will be seen only by you. Learn more »
launch autoscroll
font size
0
reset
how to read this tab
guitar tuner
edit
Autoscroll
slow
fast
+/-
esc
set tempo
stop
bueno aqui les dejo esta cancion espero que les guste
intro.-

e---------------------------------7-11-11-11--11-9--12-11-
B---------------------------------8-12-12-12--12-10-13-12-
G---------------------------------------------------------
D--------------------------4-2----------------------------
A-----------------0-2-4-2-4----0--------------------------
E-0-2-4-2-4-5-4-0-----------------------------------------

e-0-2-4-2-4-4-2-0-4-2-0-2-4-----------
B-------------------------------------
G-1-2-4-2-4-4-2-1-5-3-1-3-5-----------
D-------------------------------------
A-------------------------------------
E-------------------------------------

e-7-7-7-7--7-12-7-5-7-9-7-9-12-11-7----------------
B--------------------------------------------------
G-8-8-8-8--8-13-8-5-7-9-7-9-12-11-7--1---------1---
D-----------------------------------2-2-2-----2-2--
A--------------------------------------2-2-2-2---2-
E-----------------------------------------0-0------

MI 
nada es eterno en la vida
LA 
el amor dura un segundo
 LA              SI7
"hasta la amista sincera
FA#      SI7      MI 
es tan poco duradera" bis

MI 
cuando muerdes el anzuelo
LA 
te ponen la soga al cuello
 LA             SI7
"casarse es una locura
FA#                        MI 
que terminar frente a un cura" bis

MI 
por suerte no soy casado
LA 
la casada es mi mujer
 LA              SI7
"una de mis condiciones
FA#                    MI 
que exijo cuando hay querer" bis

MI 
Tomas Orujo

tenia muchos hijos
LA 
en varias mujeres

LA gente comenta
 SI7
"todos con la misma
FA#    SI7     MI 
vieja herramienta" bis

MI 
culpable somos los hombre
LA 
si ellas caen y tropiezan
 LA               SI7
"si pierden por orgullosa
FA#             SI7      MI 
se engordan por ser golosas" bis

MI 
la mujer cuando es hermosa
LA 
te engañan con verso y prosa
 LA               SI7
"asi cantaba el poeta
FA#         SI7      MI 
llamado gonsalo hermosa" bis

MI 
Tomas Orujo

tenia muchos hijos
LA 
en varias mujeres

LA gente comenta
 SI7
"todos con la misma
FA#    SI7     MI 
vieja herramienta" bis

ARRIBA NUESTRA MUSICA BOLIVIANA
ARRIBA LOS KJARKAS
CUALQUIER DUDA ME ESCRIBEN A 

            
            
Suggest correction
Creating personal tab
Creating personal tab
You can edit any tab online and save it as your Personal.

You can edit, replace or remove any tab part or add personal notes – all changes will be seen only by you.

Personal tabs can be accessed anytime from any device, even offline.
Learn more »
Give kudos to tab author, rate the tab!
1 2 3 4 5
comments
print report bad tab
guest
Wanna post a correction for this tab? Suggest correction