Oops, an error
Loading. Please wait.

Una Vida A Ritmo De Hardcore tab

by Kólico
8 views 1 this week
no commentswrite comment
1 2 3 4 5
3 more votes to show rating
add to favorites
×
Save as Personal and add changes to this tab that will be seen only by you. Learn more ›
×
You can save this tab as Personal to edit and correct it or add notes. All changes will be seen only by you. Learn more »
launch autoscroll
font size
0
reset
how to read this tab
guitar tuner
edit
Autoscroll
slow
fast
+/-
esc
set tempo
stop
KOLICO: Una vida a ritmo de hardcore
Nota: Los akordes de kinta nombrados kon un 6,
 se refieren al akorde agudo de esa nota

Intro
-----
   E6         D         C         D D D
E|--------------------------------------|
B|--------------------------------------|
G|-9-9--------7-7-------5-5-------7-7-7-|
D|-9-9--------7-7-5-4---5-5-5-4-2-7-7-7-|(x2)
A|-7-7-10-9-7-5-5-----7-3-3-------5-5-5-|
E|--------------------------------------|

   E6 E6 E6 E6 E6   D D D D D D D C C C C C C C C  D D D D
E|----------------------------------------------------------|
B|----------------------------------------------------------|
G|-9-9--------------7-7-----------5-5---------------7-7-7-7-|
D|-9-9-5-4-5-7-5-4--7-7-7-5-4-5-7-5-5-5-4-5-4-5-4---7-7-7-7-|
A|-7-7------------7-5-5-----------3-3-------------7-5-5-5-5-|
E|----------------------------------------------------------|

   G6 G6          F6 F6       D# D#      F6 F6 F6
E|-----------------------------------------------|
B|-----------------------------------------------|
G|-12-12----------10-10--------8-8-------10-10-10|(X2)
D|-12-12----------10-10-8-7----8-8-8-7-5-10-10-10|
A|-10-10-13-12-10-8--8------10-6-6-------8--8--8-|
E|-----------------------------------------------|

Estrofa
-------
E6        D        E6            C
Vivir es algo mas, es amistad es corazon
E6        D               E6              C
vivir es algo mas , que desempeñar actividad vital
A           D                  G              C      C
lo tuyo es vida latente , eres un robot un automata sin mas
A              D                    E6            C     D
preokupado mas k por si mismo, por su familia por su komunidad!

C          D                  B         C
Una vida a ritmo de hardcore, una vida acelerada
C          D                  B         C
una vida a ritmo de hardcore, una vida apasionada

Estribillo:
----------

(Igual k el intro 1)
Ke fue de akellos dias en k vivias adicto a la adrenalina
privabas , te manifestabas, por todo akello en lo k kreias

(Igual k el intro 2)
Ya no habran mas konciertos, ni sexo en el asiento de atras
de un koxe k konducias, konsuelate, el nuevo es muxo mejor

Final:
-----
E|--------------------------|
B|--------------------------|
G|--------------------------|
D|-------------8-10-8-------|
A|-10-10-10-12--------12-10-|
E|--------------------------|
Suggest correction
Creating personal tab
Creating personal tab
You can edit any tab online and save it as your Personal.

You can edit, replace or remove any tab part or add personal notes – all changes will be seen only by you.

Personal tabs can be accessed anytime from any device, even offline.
Learn more »
Give kudos to tab author, rate the tab!
1 2 3 4 5
comments
print report bad tab
guest
Wanna post a correction for this tab? Suggest correction