Oops, an error
Loading. Please wait.

Bienvenidos A Degüelto tab

by Koma
149 views 1 this week
no commentswrite comment
1 2 3 4 5
3 more votes to show rating
add to favorites
×
Save as Personal and add changes to this tab that will be seen only by you. Learn more ›
×
You can save this tab as Personal to edit and correct it or add notes. All changes will be seen only by you. Learn more »
launch autoscroll
font size
0
reset
how to read this tab
guitar tuner
edit
Autoscroll
slow
fast
+/-
esc
set tempo
stop
* (cuerda grave - afinacion en D)

Intro:
------
A#  G  F  A#  F G A   A#  G  F A#   F A#

     A#        G        F        A#  F G A A#
Bienvenidos a degüelto bienvenidos
    A#               G         F
La ciudad de los estomagos vacios
      G                  A
Bienvenidos con lo puesto
       A#      C D   D#
Al destierro clandestino
D#*           F        A#  A   G
Bienvenidos a degüelto Bienvenidos
D#*           F
Bienvenidos a degüelto

F E F F# G
      Bienvenidos¡¡¡¡¡
F D* E D* E F F D* E D* E F F D* E D* E F G F (X 2 VECES)

Estrofas:
----------
    G               C D D#       F          G G F G G F
El cartel de entrada         ya lo advierte claro
     G                   A#  C   C A# C C A#
que jamas nos goberno ningun estado
      D#*      F      A#         C
ven y date por jodido homenaje merecido
     D#*       C                 D*  Lick 1
a la lucha sin cuartel de tantos años

G              C D D#            F        G G F G G F
Acercaos rotos               mas que descosidos
     G                   A#  C   C A# C C A#
Al mas grande de los carnavales
      D#*      F      A#         C
Donde disfrutamos afilando los puñales
     D#*       C             F E D#* D* D* (X 3 VECES)
Despertando vomitos dormidos

Estribillo:
-----------
       A#        G      A#       G
Bienvenidos a degüelto bienvenidos
    A#              G         F F F F
La ciudad de los estomagos vacios
      G                  A
Bienvenidos con lo puesto
       A#      C D   D#
Al destierro clandestino
D#*           D*        F
Bienvenidos a degüelto Bienvenidos

       A#        G      A#       G
Bienvenidos a degüelto bienvenidos
    A#              G         F F F F
La ciudad de los estomagos vacios
      G                  A
Bienvenidos con lo puesto
       A#      C D   D#
Al destierro clandestino
D#*           F        A#  A   G
Bienvenidos a degüelto Bienvenidos
D#*           F        F E F F#            G
Bienvenidos A degüelto          Bienvenidos


Solillo:
--------
(Parte del pianito k parece musica de circo)

F E F F#  G F# G G#  A A A A

        (SOLO DE BATERIA)

     D                    D
E||--10-9-8-7-6-5-4-3-4-5-6-5-4-3-2-1-2-3-4-|
B||-----------------------------------------|
G||-----------------------------------------|
D||-----------------------------------------|
A||-----------------------------------------|
D||-----------------------------------------|

 A         A         A         B          D
|-5-0-0-0-0-5-0-0-0-0-0-1-2-3-4-5-6-7-8-9-10-|
|--------------------------------------------|
|--------------------------------------------|
|--------------------------------------------|
|--------------------------------------------|
|--------------------------------------------|

    E     A    B          A
E||--12-10-9------------------------|
B||----------10-12-12-10-9-10-10-12-|
G||---------------------------------|
D||---------------------------------|
A||---------------------------------|
D||---------------------------------|

  E             A     B         A
|-9-12-14-12-10-9------------------||
|-----------------10-12-12-10-9-10-||
|----------------------------------||
|----------------------------------||
|----------------------------------||
|----------------------------------||

     C#
E||------------------------|
B||------------------------|
G||----6-5-3-------6---3-4-|
D||--6-------6-3-6---6-----|
A||------------------------|
D||------------------------|

 G#                          C#
|--------------------------------||
|--------------------------------||
|-5-5-5---3---5---3-----3-4-5-6--||
|-------6---6---6---6-6----------||
|--------------------------------||
|--------------------------------||

     D#                    A#
E||--------------------------------|
B||----4-3-1-------4---1-2-3-3-3---|
G||--3-------3-0-3---3-----------3-|
D||--------------------------------|
A||--------------------------------|
D||--------------------------------|

             A# B C D D#
|------------------------|
|-1---3---1-----1-2-3-4--|
|---3---3---3-3----------|
|------------------------|
|------------------------|
|------------------------|

Final:
-----
A# A#  G F G  A# A#  G F G   lICK 2
Bienvenidos!!!!!

Lick 1:
------
E|-----------------|
B|-----------------|
G|-----------------|
D|-----------------|
A|-5-6-3-5-1-3-0-1-|
D|-----------------|

Lick 2:
------
                A#
E|---------------|
B|---------------|
G|---------------|
D|-3-5-5p3-------|
A|---------5h3-1-|
D|---------------|

            
            
Suggest correction
Creating personal tab
Creating personal tab
You can edit any tab online and save it as your Personal.

You can edit, replace or remove any tab part or add personal notes – all changes will be seen only by you.

Personal tabs can be accessed anytime from any device, even offline.
Learn more »
Give kudos to tab author, rate the tab!
1 2 3 4 5
comments
print report bad tab
guest
Wanna post a correction for this tab? Suggest correction