Oops, an error
Loading. Please wait.

Cambia Ya chords

23 views 1 this week
no commentswrite comment
1 2 3 4 5
3 more votes to show rating
add to favorites
×
Save as Personal and add changes to this tab that will be seen only by you. Learn more ›
×
You can save this tab as Personal to edit and correct it or add notes. All changes will be seen only by you. Learn more »
launch autoscroll
font size
0
reset
transpose
0
reset
display chords
guitar tuner
edit
Autoscroll
slow
fast
+/-
esc
set tempo
stop
Strumming
There is no strumming pattern for this song yet. and get +5 IQ
 INTRO:

 E G F# E  G  x6

 E G F# E  x1

 D C# Bx Gx Ax Bx  x3


 ESTROFA:

 Bx        Gx                Ax            Bx   D C#
 Que hacen tus pensamientos, encerrados en tu cerebro
 
 Bx        Gx            Ax         Bx    D C#
 que hacen tus palabras, eskondidas en tu boca

 Bx        Gx            Ax         Bx     D C#
 que hacen tus karicias, eskondidas en tus dedos


 PUENTE:

 B  D  A  G  F#


 ESTRIBILLO:

 B                 D
 Tu espontaniedad, solo depende de ti

 A          G       F#
 cambia ya, no seas uno más.

 B                 D
 Tu espontaniedad, solo depende de ti

 A          G           F#         
 cambia ya, deja de ser uno más.


 Bx Gx Ax Bx D F#  x2


 ESTROFA:

 Bx          Gx       Ax       Bx   D F#
 Que hace la paz, encerrada en sangre

 Bx            Gx            Ax       Bx   D F#
 que hacen las noches, entre cuatro paredes

 Bx              Gx                Ax        Bx             D  F#
 se puede saber, por qué está machacado y resumido en las escuelas


 SOLO:

e|---------------------------------------------------
B|---------------------------------------------------
G|------7--9--11--9--7-------7-9-9-10-9-7------------
D|---9-----------------9-7-9--------------9-7-7-9----
A|---------------------------------------------------
E|---------------------------------------------------


e|---------------------------------------
B|---------------------------------------
G|---7-9-10-9-7-7-------7-9h10-9-7-------
D|----------------9-7-9------------9-7---
A|---------------------------------------
E|---------------------------------------


e|---------------------------------------------------------
B|---------------------------------------------------------
G|------7--9--11--9--7x-9x-11x-9x-7x--7-9-7-11-'6'---------
D|---9---------------------------------------------9-9-7-9-
A|---------------------------------------------------------
E|---------------------------------------------------------


 ESTRIBILLO

 Acabado en B


 Se toka todo seguido y la h quiere decir hammer-on, y el '6' que 
 se toquen dos veces las ultimas kuatro notas(no sabia komo ponerlo)
 o las que queraís, y la x tanto del solo komo de q se toquen varias veces,
 escuchad el disko.

 
 Gracias al Xano por las molestias de buskarme el nombre del 
 aklaraciones, korrecciones, y muchachitas lindas a mi dirección.
Suggest correction
Creating personal tab
Creating personal tab
You can edit any tab online and save it as your Personal.

You can edit, replace or remove any tab part or add personal notes – all changes will be seen only by you.

Personal tabs can be accessed anytime from any device, even offline.
Learn more »
Give kudos to tab author, rate the tab!
1 2 3 4 5
comments
print report bad tab
guest
Wanna post a correction for this tab? Suggest correction