Oops, an error
Loading. Please wait.

Me Pregunto Donde Estás tab

59 views 1 this week
no commentswrite comment
1 2 3 4 5
3 more votes to show rating
add to favorites
×
Save as Personal and add changes to this tab that will be seen only by you. Learn more ›
×
You can save this tab as Personal to edit and correct it or add notes. All changes will be seen only by you. Learn more »
launch autoscroll
font size
0
reset
how to read this tab
guitar tuner
edit
Autoscroll
slow
fast
+/-
esc
set tempo
stop
Bueno les dejo esta canción de los Konsumo que me la toque en la
Fiesta de gala de 4 medio, se la dedique a la chica que me robo el
corazón:

Intro: F    G(pm)   A(pm)
       F(pm)  C(pm)  G   A

 Base: F C G A
|--------------------------------|
|-------8----8/10--8-------------|Ahora suena la gaita, pero como
|--5--7--------------9--7/5-5----|supono ke no disponemos de ella
|--------------------------------|lo pasamos a guitarra.
|--------------------------------|
|--------------------------------|


F         G        A
Aburrido, cansado, perdido, no hay salida en mi camino.
F         G        A          G
Vivo y muerto eso si distraido, me mordiste el corazón.
F         G        A
Una calle recuerda al olvido, un portal que marcó mi destino,
F         G        A          G
Una estrella fugaz para siempre me dejó sin la razón.

F                          C
Sin la poca razón que tenía, sin el sol que alumbraba mis días,
G(pm)                      A
sin la luna de todas mis noches y sin más canción.
F                          C
Con la pena de la cobardía, con paisajes de una luz sombría,
G(pm)                      A                 G     F   G
con las nubes de un cielo rebelde de autodestrucción.


A      G    F
Me pregunto donde estás,           |--------8----------------------|
A      G    F                      |--/6-5------/6-5---------------|
solo veo la pared.                 |-----------------5-------------|
A      G    F                      |-------------------------------|
Agobios, mareos, empiezo a sudar,  |-------------------------------|
A      G    F                      |-------------------------------|
me pregunto donde estás.            Esto es lo ke suena en el coro.

SOLO:
|-------------------------------------------------------------|
|-------------------------------------------------------------|
|----------------------------------------/10~----10-9-7-------|
|-10-10--7--10-10--7--10-10--7--10-10--7-----------------10---|
|-------------------------------------------------------------|
|-------------------------------------------------------------|

|-------------------------------------------------------------|
|-------------------------------------------------------------|
|--Aqui-usen-palm-mute----------------------------------------|
|-10-10-7-10-10-7-10-10-7-10-10-7--------12-10---9----7-------|
|-----------------------------------10~-----------------------|
|-------------------------------------------------------------|

|-------------------------------------------------------------|
|-------------------------------------------------------------|
|/12--------/12-----------10-9-7--------9-9-10--9-7-----------|
|----10-9-------10-9--7~---------10~-----------------10-9-10~~|
|-------------------------------------------------------------|
|-------------------------------------------------------------|

A  G  F x2 Con pm
F  G  A               (Aqui tambien suena gaita con notas DO y SOL
F  G  A  G             Luego usen los gaitasos del principio)

F         G        A
Defraudado, jodido, cazado, como coño me ha pasado?
F         G        A          G
Pensamientos mal intencionados que siempre me hablan de ti.
F         G        A
Un silencio que explota en mi cuarto la locura que empieza a dar saltos
F         G        A          G
una fiesta que no me han llamado, solo queda sonreir.

F                            C
Sonreír pa joderle a las penas, pa burlarme del mundo que enferma,
G(pm)                      A
pa sentirme un poco menos mierda y pa ser cabrón.
F                          C
Un cabrón que es más falso que judas que revienta y se vuelve basura
G(pm)                      A                 G     F   G
Que con verte o soñarte desnuda se siente mejor.

A      G    F
Me pregunto donde estás,
A      G    F
solo veo la pared.
A      G    F
Agobios, mareos, empiezo a sudar,
A      G    F
me pregunto donde estás.        Aqui lo hacen con pedal WAH WAH :)
                               |-------------------------------|
A      G    F                  |-------------------------------|
Me pregunto donde estas,       |-------------------------------|
A      G    F                  |---7--9--10---12-10-9----------|
solo veo la pared.             |-------------------------------|
A      G    F                  |-------------------------------|
El viento de frente me empieza a soplar,
A      G    F
 me pregunto donde estas


Bueno y eso es toda la canción que es fabulosa, yo quero dedicarla
a esa joven que me robo el corazon denuevo :), y que aunque nos estemos
juntos ella sabe que aun la Amo muchicimo...
Para J.A.C.C.  de todo corazon, lo que no puedo decir con palabras
lo digo con la mirada y una cancion...

            
            
Suggest correction
Creating personal tab
Creating personal tab
You can edit any tab online and save it as your Personal.

You can edit, replace or remove any tab part or add personal notes – all changes will be seen only by you.

Personal tabs can be accessed anytime from any device, even offline.
Learn more »
Give kudos to tab author, rate the tab!
1 2 3 4 5
comments
print report bad tab
guest
Wanna post a correction for this tab? Suggest correction