Oops, an error
Loading. Please wait.

Una Vez Más tab

by Kraken
56 views 1 this week
no commentswrite comment
1 2 3 4 5
2 more votes to show rating
add to favorites
×
Save as Personal and add changes to this tab that will be seen only by you. Learn more ›
×
You can save this tab as Personal to edit and correct it or add notes. All changes will be seen only by you. Learn more »
launch autoscroll
font size
0
reset
how to read this tab
guitar tuner
edit
Autoscroll
slow
fast
+/-
esc
set tempo
stop
En esta canción se usan tres posiciones distintas de G Mayor, los
designaré con G1, G2 y G3, estos son los acordes:

    G1  G2 G3   Em  Eb  D   F
e---3---3---7---0---6---5---1--
B---3---3---8---0---8---7---1--
G---0---4---7---0---8---7---2--
D---0---5---9---2---8---7---3--
A---2---5---10--2---6---5---3--
E---3---3---7---0---6---5---1--


Riff1:                   Riff2:
e------------------      e--3-2------
B------------------       B------3--0-
G---0----------0---       G-----------
D-----2----------4-       D-----------
A-3-----3--3/5-----       A-----------
E------------------       E-----------

INTRO:

Riff1

e--------3-2----------3-2--------0--------------------
B------3-----3------3----------3---3------------------
G----0------------0----------0-----------0--------0---
D-0-------------0----------0---------------2--------4-
A--------------------------------------3-----3-3/5----
E-----------------------------------------------------


Te doy una idea del arpegio, pero lo ideal es jugar con las notas para
que no suene monotona la cancion

G1                                           Em
e---------3---------------3----------------0----------
B-----3-----3---3-----3-------3--------0-------0------
G---0---0-----0-----0---0---0---0----0---0---0---0----
D-0---------------------------------------------------
A-----------------2----------------2------------------
E-----------------------------------------------------
Llueve miedo en mi interior un otoño en flor que sentir

G1
e---------3---------------3-----------------------
B-----3-----3---3-----3-------3-------------------
G---0---0-----0-----0---0---0---0-----------------
D-0-----------------------------------------------
A-----------------2-------------------------------
E-------------------------------------------------
resplandece en contraluz y como inmenso alud
Em      Riff1   G1              Em     Riff2
vuelve a mi, la soledad uhh uh, la sed

G1                                    Em          riff1
Fortalezco mi razón lo que busco hoy vierte del ayer
F                               G1
Mira oh mira quien puedo ser Oh no
                                Em
no puedo rasgar valor con miedo si he herido he de volver,
G1                             Em        Riff1
navegando voy con escasa piel tan sensible
    G1             Em          Riff1
al escapar uhh uh, una vez mas voy ausente

G1                           Em
En tinieblas, bajo eclipses. soy quien tiembla
               F
llantos grises suelo ser, siendo ser

Coro

G2         Eb          F                D
Hoy he ido como ayer a ese lugar que es mar de sed
G2               Eb          F            D
grito herido en su ansiedad oculto asi en soledad
      G1
para oir blancas voces no

Intro
                  G1
No no no no no no puedo y siento ser tan fragil oh
Em                                   G1
me encuentro debil sangrando facil cayendo en declive
                         Em           Riff1
sintiendo que gime mis esferas sensibles

     G1                               Em
y usted que me espera ser sed en mar, grito quejible
G1
sin temor a enfrentarlo voy navegando con escasa piel
Em             Riff1
escuche y no tema

G2         Eb          F                D
Hoy he ido como ayer a ese lugar que es mar de sed
G2               Eb          F            D Eb
grito herido en su ansiedad oculto asi en soledad

e--------------------------------------------------
B---------3-3/8-8v-8p6p5-6p5p3---------------------
G--/4---4----------------------5p4h5p4-2v----------
D-----5--------------------------------------------
A--------------------------------------------------
E--------------------------------------------------


Noooo!

G2         Eb          F                D
Hoy he ido como ayer a ese lugar que es mar de sed
G2               Eb          F            D Eb
grito herido en su ansiedad oculto asi en soledaaaaaaaahahad


  G3                 Eb               G3                Eb
e-----------7----------------6-----------------7----------------8--------
B------------------------8-------8--------------------------8-------8---
G-------7-------7------8---8---8---8-------7-------7------8---8---8---8--
D-----9---9---9---9----------------------9---9---9---9-------------------
A--10----------------6----------------10----------------6----------------
E------------------------------------------------------------------------
         G3        Eb         G3          Eb
Ahora no se! que hacer mi soledad es mar de sed
G3        Eb   G3       Eb      (Eb)
que no termina que me domina...

(silencio)
                     G1            Em           G1
Como en los dias de ayer, uh una vez mas, una vez mas
Em  Riff1     G1              Em          G1
uh uh uh uh uhuhuh, uh una vez mas, una vez mas
Em   Riff1                 G1
uh uh uh uh uhuhuhuhuh uh uh


Dedicada a mi princesa gotica, 'usted que me espera es sed en mar', sabes que cada vez
que suena esta cancion es para contar nuestra historia, te amo!

Sogamoso-Colombia

            
            
Suggest correction
Creating personal tab
Creating personal tab
You can edit any tab online and save it as your Personal.

You can edit, replace or remove any tab part or add personal notes – all changes will be seen only by you.

Personal tabs can be accessed anytime from any device, even offline.
Learn more »
Give kudos to tab author, rate the tab!
1 2 3 4 5
comments
print report bad tab
guest
Wanna post a correction for this tab? Suggest correction