Oops, an error
Loading. Please wait.

Mi Corazón Tu Hogar chords

23 views 1 this week
no commentswrite comment
1 2 3 4 5
3 more votes to show rating
add to favorites
×
Save as Personal and add changes to this tab that will be seen only by you. Learn more ›
×
You can save this tab as Personal to edit and correct it or add notes. All changes will be seen only by you. Learn more »
launch autoscroll
font size
0
reset
transpose
0
reset
simplify chords
display chords
guitar tuner
edit
Autoscroll
slow
fast
+/-
esc
set tempo
stop
Strumming
There is no strumming pattern for this song yet. and get +5 IQ
Intro Y Verso

D  D/C#  Bm7  Asus4  G  D/F# Esus4

1-------------------------------------------------------------0------
2-----3--------3--------3--------3--------3--------3--------0---3-2-0
3---2---2----2---2----2---2----2---2----0---0----3---0----3----------2
4-0------------------------------------------------------------------
5----------4--------2--------0---------------------------------------
6-------------------------------------3--------2--------0------------

1-------------------------------------------------------------0-------
2-----3--------3--------3--------3--------3--------3--------0---------
3---2---2----2---2----2---2----2---2----0---0----3---0----0-----------
4-0-------------------------------------------------------------------
5----------4--------2--------0----------------------------------------
6-------------------------------------3--------2--------0-------------


(En el verso pueden usar el mismo arpegio que la intro o acordes)

Has de mi
D      A/C#   Bm  A
Corazón tu hogar
          G             F#m            Em
Ven y se todo lo que tengo y lo que soy
D   A/C#        Bm   A
Prueba mi corazón
                G       A      D
Y hazme un hogar digno de ti            (2 veces)

CORO
D                G -A -D
Un hogar para ti
D          G -A -D
Digno de ti
                  C
Que todo lo que soy
                G                  A
Invite a tu presencia a estar en mi corazón
       G     A
Pues tuyo es Señor

JACOBO MORENO GUTIERREZ
SALUDOS A LA IGLESIA LA BIBLIA ABIERTA S. CRIST.

            
            
Suggest correction
Creating personal tab
Creating personal tab
You can edit any tab online and save it as your Personal.

You can edit, replace or remove any tab part or add personal notes – all changes will be seen only by you.

Personal tabs can be accessed anytime from any device, even offline.
Learn more »
Give kudos to tab author, rate the tab!
1 2 3 4 5
comments
print report bad tab
guest
Wanna post a correction for this tab? Suggest correction