Oops, an error
Loading. Please wait.

Llévame tab

version 1
version 1

Whole song

Interactive

by Kudai
153 views 3 this week
no commentswrite comment
1 2 3 4 5
3 more votes to show rating
add to favorites
×
Save as Personal and add changes to this tab that will be seen only by you. Learn more ›
×
You can save this tab as Personal to edit and correct it or add notes. All changes will be seen only by you. Learn more »
launch autoscroll
font size
0
reset
how to read this tab
guitar tuner
edit
Autoscroll
slow
fast
+/-
esc
set tempo
stop
hola amigos soy de nuevo ever martinez, desde colombia
esta vez les traigo una super cancion de kudai:
llevame. aclaro que esta es la version acustica de la cancion,
los acordes para ragueos son los mismos de la version
rock pop pero los arpegios y punteos
son los que varian, sin miedo a equivocarme creo que
esta perfecta al 100%.
de todos modos acepto cualquier recomendacion.
espero que la disfruten!!!!!!!!!
manemartin@

Llévame (versión acústico)

                                    2ª guitarra (bajo)
                                    (este punteo suena paralelo al
                                     intro)
e--------------13----------------| G-5-s-7--7-7-s-8-8-8---|
B----11-10-11-----10-11----11----|
G-10--------------------10----10-| G-5-s-7-7-5------------|
D--------------------------------|
A--------------------------------| G-5-s-7-7-7-s-8-8-8-10-|
E--------------------------------|

e--------------13----10----8-----|
B----11-10-11-----10-------------|
G-10--------------------10----10-|
D--------------------------------|
A--------------------------------|
E--------------------------------|

e----------------13----------------8----10----|
B------11-10-11-----10-11----11---------------|
G---10--------------------10----10---10----10-|
D---------------------------------------------|
A---------------------------------------------|
E---------------------------------------------|

  A#
   Miiiiirame   quien  sabe a dónde
e-----------1--------|--------1-------|
B-------3-----3------|-----3-----3----|
G-----3---3------3---|---3---3-----3--|
D--------------------|----------------|
A--1-----------------|--1-------------|
E--------------------|----------------|

  Gm
  Lleeeeegare??.
e-------------------|-----------------|
B-----------3-------|-----------3-----|
G-------3-----3-----|-------3-----3---|
D-----5---5-----5---|-----5---5-----5-|
A-------------------|-----------------|
E--3----------------|--3--------------|

   A#                                    D              D
   Tooooomame no hay suelo ya don?.......de caer
e-----------1--------|--------1-------|-----------2-----|
B-------3-----3------|-----3-----3----|------3------3---|
G-----3---3------3---|---3---3-----3--|----2---2------2-|
D--------------------|----------------|--0--------------|
A--1-----------------|--1-------------|-----------------|
E--------------------|----------------|-----------------|

(Del último D en adelante los acordes rasgueados)
(el D# no lo hacemos en el traste 6 sino que colocamos
 un C con cejilla en el trate 3)

Gm        D#         A#
Ven Llévame  del dolor?.
            D                Gm
Que está oscuro y no oigo tu voz
        D#         A#
Solo quiero respirar
         D
Que la noche me va a matar
                        e---3--5---5--6-|-----------------|
                        B-3------3------|---8-10---10-11--|
                        G---------------|-7------7--------|

A#                       Gm
Tómame que el mundo se vino a mis pies
A#                           D
Llévame que hoy ya no me quiero esconder

Gm        D#         A#
Ven Llévame  del dolor?.
            D                Gm
Que está oscuro y no oigo tu voz
        D#         A#
Solo quiero respirar
         D               Gm
Que la noche me va a matar
           D#             A#
Da me un beso algo que me haga
               D
Al fin regresar
       Gm         D#           A#
Y llorar en tus brazos al final
               D               Gm
Que aún hay tiempo para escapar

Puente:

e----------------|--------------------|
B----------------|--------3-s-5-5-p-4-|
G----------------|-5-s-6--------------|
D--3-s-4--4-6-7--|--------------------|

e----------------|--------------------|
B----------------|--------5-s-7-7-p-6-|
G----------------|-7-s-8--------------|
D-6--6-8-9-------|--------------------|


G------------6-s-7-|-6-4-6-s-7-4-s-5-p-4-2-|
D-------4-5--------|-----------------------|
A-7-7-7------------|-----------------------|
E------------------|-----------------------|

e------------------|-------------12--------|
B------------------|-5-7-8-10-12-----------|
G------4-s-5-p-4-2-|-----------------------|
D--0-2-------------|-----------------------|
A------------------|-----------------------|
E------------------|-----------------------|


   Am        F         C      E
   Ven llévame del dolor uoh  ohhhh
   Am        F         C      E
   Ven llévame del dolor uoh  ohhhh
(e-5---7-8---5-7-8-----3---7-8-7--8-7-)

     Am       F
Nara naaaaaa
      C               E
Llévame llévame llévame
Am               F       C    E
Veeeeeeen (llevameeee)

Am       F       C     E  Am
  (Llevameeee)   (Ven)

nota: escuchen muy bien la cancion para que le tomen el ritmo
a los arpegios y punteos.
recuerden que esta transcripcion es de la version acustica
LA cancion.

            
            
Suggest correction
Creating personal tab
Creating personal tab
You can edit any tab online and save it as your Personal.

You can edit, replace or remove any tab part or add personal notes – all changes will be seen only by you.

Personal tabs can be accessed anytime from any device, even offline.
Learn more »
Give kudos to tab author, rate the tab!
1 2 3 4 5
comments
print report bad tab
guest
Wanna post a correction for this tab? Suggest correction