Oops, an error
Loading. Please wait.

Llévame tab

version 3
version 3

Whole song

Interactive

by Kudai
52 views 1 this week
no commentswrite comment
1 2 3 4 5
3 more votes to show rating
add to favorites
×
Save as Personal and add changes to this tab that will be seen only by you. Learn more ›
×
You can save this tab as Personal to edit and correct it or add notes. All changes will be seen only by you. Learn more »
launch autoscroll
font size
0
reset
how to read this tab
guitar tuner
edit
Autoscroll
slow
fast
+/-
esc
set tempo
stop
Llévame versión Acústico

En esta cancion tokan dos guitarras
La "guitarra 1" hace los acordes y riff
mientras que la "guitarra 2" hace los punteos...
esta super mas que mejorada

Intro: Aki entran las 2 a la vez (fijense en los tiempos)

          Gm                 D#               A#
E |----------------13----------------------------------13--------|
B |-------11/10-11-----10/11-11---11----------11/10-11-----10/11-|
G |-----------------------------8----8---------------------------|
D |-11/12-------------------------------11/12--------------------|
A |--------------------------------------------------------------|
E |--------------------------------------------------------------|
     F               Gm                 D#        A#           D
E |-10------8-----------------13------------------8----11--------|
B |------------------11/10-11-----10/11-11---11-----------6/11---|
G |-----10---------------------------------8----8---11-----------|
D |------------11/12---------------------------------------------|
A |--------------------------------------------------------------|
E |--------------------------------------------------------------|

(Aca va solo el sgte arpegio) Solo marca la guitarra 2
(A)
Mírame,            (B)             Arpegios : (A) (B) (C)
quien sabe a donde llegare
(A)
Tómame,            (C)
no hay suelo ya donde caer


(A)
    A#
E |---------1-----------------------|(x2)
B |-----------3---------------------|
G |-----3-------3-------------------|
D |---3---3-------3-----------------|
A |-1-------------------------------|
E |---------------------------------|

(B)
    Gm
E |---------------------------------|(x2)
B |---------3-----------------------|
G |-----3-----3---------------------|
D |-------5-----5-------------------|
A |---5-----------5-----------------|
E |-3-------------------------------|

(C)
    D
E |---------------------------------|
B |---------7-----------------------|
G |-----7-----7---------------------|
D |---7---7-----7-------------------|
A |-5-------------5-----------------|
E |---------------------------------|

En la segunda vuelta el tercer arpegio va una vez
Y ahí entra en re


D

Coro:

Gm
Ven
     D#        A#
Llévame del dolor
            D                Gm
que esta oscuro y no oigo tu voz
        D#        A#
solo quiero respirar
        D              SOLm
que la noche me va a matar

al final del coro viene este punteo:

E |-----3---5---6-------3---5---6---|
B |-3-3---3---3---4-3-3---3---3---4-|
G |---------------------------------|
D |---------------------------------|
A |---------------------------------|
E |---------------------------------|


 A#
Tómame,
                          Gm
Que el mundo se vino a mis pies
 A#
Llévame,
                        D
Que hoy ya no me quiero esconder

Coro:
 Gm
Ven
      D#       A#
Llévame del dolor
            D                Gm
Que esta oscuro y no oigo tu voz
         D#        A#
Solo quiero respirar
        D              Gm
Que la noche me va a matar

  Gm      D#
Dame un beso
            A#               D
Algo que me haga al fin regresar
     Gm           D#        A#
Y llorar en tus brazos al final
             D              Gm
Que aun hay tiempo para escapar...


Aka mientras la guitarra 1 hace los acordes
la guitarra 2 hace el punteo


    F#m       C#m         G#m      D#m        Em
E |-----------------------------------------------------|
B |---------------4/5-4/2----------4-6/7-6/4------------|
G |-------1-2-4/6---------1--1-3-4--------------------0-|
D |-3/4-4-------------------------------------2-2-2-4---|
A |-----------------------------------------------------|
E |-----------------------------------------------------|

    Bm          D           F#m     Em        Em
E |---------------------------------------5-7-12--|
B |-1/3-2-0-2/3---------------------5-7-8---------|
G |-------------4/5-4-2-----4/6-4-2---------------|
D |---------------------0h2-----------------------|
A |-----------------------------------------------|
E |-----------------------------------------------|


Am        F         C   E
Ven, llévame del dolor
Am        F         C   E
Ven, llévame del dolor?

Nananaaa (Am  F  C  E)

Llévame, llévame, llévame (Am  F  C  E)

Este punteo va de fondo hasta el final de la cancion
no es difícil si te fijas bien en la melodía
t darás cuenta q es super facil
    Am                     F
E |-----------------------------------------------|
B |-5-6-5-5-5-6-5-6-5------5-6-5-5-5-6-5-6-5------|
G |-------------------7-5--------------------7-5--|
D |-----------------------------------------------|
A |-----------------------------------------------|
E |-----------------------------------------------|
    C                     E        Am
E |------------------------------------------------------|
B |-5-6-5-5-5-6-5-6-5--------------5-6-5-5-5-6-5-6-5-----|
G |-------------------7-5----------------------------7-5-|
D |-----------------------7/9-7-6------------------------|
A |------------------------------------------------------|
E |------------------------------------------------------|
    F                      C                     E
E |------------------------------------------------------|
B |-5-6-5-5-5-6-5-6-5------8-6-5-5-5-6-5-6-5-------------|
G |-------------------7-5--------------------7-5---------|
D |----------------------------------------------7/9-7-6-|
A |------------------------------------------------------|
E |------------------------------------------------------|


Llévame, ven  (Am  F  C  E)? y Am...


RECOMENDACION: Fijense bien en los tiempos
escuchala bien y t daras cuenta q too ta super bn, 99,9% completa

RASGUEO:
- 2 riff y el acorde completo,3 riff - acorde-1 riff, se repite y
cambia d nota.  sigue la misma estructura hasta el coro

-coro,intro y solo: - 2 riff-acorde-3 riff-acorde-1 riff y cambia
D nota

RIFF: se hace un acorde d quinta cn octava. es decir los acordes
se hacen cn cejilla y se tokan las 3 ultimas notas dl acorde.
Ejemplo:

    Gm
E |---------|
B |---------|
G |---------|
D |-5-------|
A |-5-------|
E |-3-------|


.................................MichEl................

            
            
Suggest correction
Creating personal tab
Creating personal tab
You can edit any tab online and save it as your Personal.

You can edit, replace or remove any tab part or add personal notes – all changes will be seen only by you.

Personal tabs can be accessed anytime from any device, even offline.
Learn more »
Give kudos to tab author, rate the tab!
1 2 3 4 5
comments
print report bad tab
guest
Wanna post a correction for this tab? Suggest correction