Oops, an error
Loading. Please wait.

Brillará Por Siempre tab

by Kyosko
8 views 1 this week
no commentswrite comment
1 2 3 4 5
3 more votes to show rating
add to favorites
×
Save as Personal and add changes to this tab that will be seen only by you. Learn more ›
×
You can save this tab as Personal to edit and correct it or add notes. All changes will be seen only by you. Learn more »
launch autoscroll
font size
0
reset
how to read this tab
guitar tuner
edit
Autoscroll
slow
fast
+/-
esc
set tempo
stop
Hola! bueno, voy a transcribir aca los arreglos de la cancion.
Espero que les guste y les sea util!!
Bendiciones!


INTRO:
La intro la hace 2 veces, la primera, repite la
nota D en el 3 traste.
La segunda vez hace el acorde D en el final del riff.

e|----------------------------------------------------|
B|--5-5-3-2-3-5-5-3-2-3-3-3-3-3-3-3-3-----------------|
G|----------------------------------------------------|
D|----------------------------------------------------|
A|----------------------------------------------------|
E|----------------------------------------------------|

CORO:
Es su corazón que brillará por siempre //
brillo en las manos de Dios, brillo en las manos de Dios

Es tan facil acabar quebrado y perder de vista a quien te levantó.
El maestro se inclinó, tomo agua y comenzó a lavar los pies de este dolor

CORO:
Es su corazón...

Hijo, ¿como te encontras? ahora comenza a lavar los pies con mi amor
de esta forma lo harás, mi manto cubrirá de alivio tanta sin razón

e|----------------------------------------------------|
B|--3-3-2-2-0-0---------------------------------------|
G|---------------2-4-4--------------------------------|
D|----------------------------------------------------|
A|----------------------------------------------------|
E|----------------------------------------------------|


Porque el me amó decidió amarne hasta el fin
porque el me amo el me dio esta vida junto a El
porque el me amo, porque el me amo, porque el me amo, me salvó

PUENTE:
Esta parte se repite dos veces, la primera asi como
esta acá abajo, la segunda se le agrega el E, al final.

e|----------------------------------------------------|
B|----------------------------------------------------|
G|----------------------------------------------------|
D|----------------------------------------------------|
A|---3---3---3--5-3-5-7-5-3---------------------------|
E|-5---5---5------------------------------------------|

Porque el me amó decidió amarme hasta el fin
porque el me amo el me dio esta vida junto a El
porque el me amo,porque el me amo, porque el me amo me salvó

Siempre que clame el me oyo,  todos los humildes serán saciados
los que lloran van a ser consolados,
todos los que buscan a Dios lo encontrarán.

CORO FINAL:
Este riff se hace 3 veces:

Es su corazón, oh oh..

e|----------------------------------------------------|
B|--3-2-0---------------------------------------------|
G|----------------------------------------------------|
D|----------------------------------------------------|
A|----------------------------------------------------|
E|----------------------------------------------------|

Despues tiene este en el final:
Es su corazón, oh ooooh!..

e|----------------------------------------------------|
B|--3-2-0---------------------------------------------|
G|--------2-------------------------------------------|
D|----------------------------------------------------|
A|----------------------------------------------------|
E|----------------------------------------------------|

            
            
Suggest correction
Creating personal tab
Creating personal tab
You can edit any tab online and save it as your Personal.

You can edit, replace or remove any tab part or add personal notes – all changes will be seen only by you.

Personal tabs can be accessed anytime from any device, even offline.
Learn more »
Give kudos to tab author, rate the tab!
1 2 3 4 5
comments
print report bad tab
guest
Wanna post a correction for this tab? Suggest correction