Oops, an error
Loading. Please wait.

Grítale Al Enemigo tab

version 1
version 1

Whole song

206 views 1 this week
no commentswrite comment
1 2 3 4 5
3 more votes to show rating
add to favorites
×
Save as Personal and add changes to this tab that will be seen only by you. Learn more ›
×
You can save this tab as Personal to edit and correct it or add notes. All changes will be seen only by you. Learn more »
launch autoscroll
font size
0
reset
how to read this tab
guitar tuner
edit
Autoscroll
slow
fast
+/-
esc
set tempo
stop
esta cancion me encanta por eso selas mando oks !!!
  sigan adelante practicando salu2
TONOS DE AFINACION :

la afinacion esta en Eb (Db  Ab  Db  Gb  Bb  Eb)
en caso de que no entiendan esta asi (C# G# C# F# A# D#)


INTRO :
GUITARRA 1
D# -----------------------------------------------
A# -----------------------------------------------
F# ----------------------------------------------- X6
C# --0--10/12---10-12------4-5-4-5---4-7-5-4-0----
G# --0--10/12---10-12------4-5-4-5---4-7-5-4-0----
C# --0--10/12---10-12------4-5-4-5---4-7-5-4-0----

GUITARRA 2

D# -----------------------------------------------
A# -----------------------------------------------
F# ----------------------------------------------- X3
C# --0---10/12---10-12-----4-5-4-5---4-7-5-4-0----
G# -----------------------------------------------
C# -----------------------------------------------


 no reiras mas de mi ...
D# -----------------------------------------------
A# -----------------------------------------------
F# ----------------------------------------------- X2
C# --0--0-0-0--2-3-3--7-8-8---4-5-5---5-3-0-------
G# --0--0-0-0--2-3-3--7-8-8---4-5-5---5-3-0-------
C# --0--0-0-0--2-3-3--7-8-8---4-5-5---5-3-0-------


sacrificio de amor en la cruz ...
D# -------------------------------------------------------
A# -------------------------------------------------------
F# -------------------------------------------------------
C# --3---5---8---10--------3--5--88888-7-8-10-8-7-0-------
G# --3---5---8---10--------3--5--88888-7-8-10-8-7-0-------
C# --3---5---8---10--------3--5--88888-7-8-10-8-7-0-------
el rasgeo de estas notas son rapidas y varias escuchen la cancion
para que se den cuanta como va


intro

GUITARRA 1  gritale al enemigo ...
D# -----------------------------------------------
A# -----------------------------------------------
F# ----------------------------------------------- X4
C# --0--10/12---10-12------4-5-4-5---4-7-5-4-0----
G# --0--10/12---10-12------4-5-4-5---4-7-5-4-0----
C# --0--10/12---10-12------4-5-4-5---4-7-5-4-0----

GUITARRA 2

D# -----------------------------------------------
A# -----------------------------------------------
F# ----------------------------------------------- X4
C# --0---10/12---10-12-----4-5-4-5---4-7-5-4-0----
G# -----------------------------------------------
C# -----------------------------------------------


terror y destruccion ...
D# -----------------------------------------------
A# -----------------------------------------------
F# ----------------------------------------------- X2
C# --0--0-0-0--2-3-3--7-8-8---4-5-5---5-3-0-------
G# --0--0-0-0--2-3-3--7-8-8---4-5-5---5-3-0-------
C# --0--0-0-0--2-3-3--7-8-8---4-5-5---5-3-0-------


sacrificio de amor en la cruz ...
D# -------------------------------------------------------
A# -------------------------------------------------------
F# -------------------------------------------------------
C# --3---5---8---10--------3--5--88888-7-8-10-8-7-0-------
G# --3---5---8---10--------3--5--88888-7-8-10-8-7-0-------
C# --3---5---8---10--------3--5--88888-7-8-10-8-7-0-------
el rasgeo de estas notas son rapidas y varias escuchen la cancion
para que se den cuanta como va


desenlace y el final ....
D# ------------------------------------------------------
A# ------------------------------------------------------
F# --5------7-------------------------------7------------
C# --5--X5--7--X5---8------7-8-10--10-------7---X5-------
G# --3------5-------8-X5---7-8-10--10-X5----5------------
C# -----------------8------7-8-10--10--------------------


D# ------------------------------------------------
A# ------------------------------------------------
F# ------------------------------------------------
C# --8------7------6-----5-----3--0----------------
G# --8-X5---7-X5---6-X5--5-X3--3--0----------------
C# --8------7------6-----5-----3--0----------------


guitarra 1    heyy...
D# ------------------------------------------------------------------
A# ------------------------------------------------------------------
F# ------------------------------------------------------------------
C# ------------------------------------------------------------------
G# ------------5*-------------------------------3*-------------------
C# --0-3-4-5-0----0-3-4-5-4-3-0-----0-3-4-5-0--------0-3-5-4-3-0-----

 * armonico


D# ----------------------------------------------------------------
A# ----------------------------------------------------------------
F# -------------------------------5-5---5-------8-8--8-------------
C# -------------------------------5-5---5-x3----8-8--8-x3---------- x2
G# -------------1*----------------3-3---3-------6-6--6-------------
C# --0-3-5-4-0-----0-3-5-4-3-0-------------------------------------


guitarra 2
D# ------------------------------------------------------------------
A# ------------------------------------------------------------------
F# --------------7*------------------------------5*------------------
C# ---0-3-4-5-0-----0-3-4-5-4-3-0----0-3-5-4-0------0-3-4-5-4-3-0----
G# ------------------------------------------------------------------
C# ------------------------------------------------------------------


D# -----------------------------------------------------------------
A# --------------------------------5-5--5-5-5----7-7---7-7-7--------
F# --------------3-----------------5-5--5-5-5----7-7---7-7-7--------
C# ---0-3-4-5-0----0-3-4-5-4-3-0------------------------------------
G# -----------------------------------------------------------------
C# -----------------------------------------------------------------


pre-solo :

D# -------------------------
A# -------------------------
F# --------------7/6--------
C# --------------7/6-------- x3
G# --------------5/4--------
C# -0-0-0---000-------------
    ^   ^
^  plumiya o pua  hacia abajo


D# ------------------------
A# ------------------------
F# ------------------------
C# ---00-0-0-0-0-----------
G# ---00-0-0-0-0-----------
C# ---00-0-0-0-0-----------


solo ? ... se los devo


entre el solo se escucha esto

D# -----------------------------------------------
A# -----------------------------------------------
F# ----------------------------------------------- X4
C# --0--10/12---10-12------4-5-4-5---4-7-5-4-0----
G# --0--10/12---10-12------4-5-4-5---4-7-5-4-0----
C# --0--10/12---10-12------4-5-4-5---4-7-5-4-0----


gritale al enemigo ...
guitarra 1
D# -----------------------------------------------
A# -----------------------------------------------
F# ----------------------------------------------- X6
C# --0--10/12---10-12------4-5-4-5---4-7-5-4-0----
G# --0--10/12---10-12------4-5-4-5---4-7-5-4-0----
C# --0--10/12---10-12------4-5-4-5---4-7-5-4-0----


guitarra 2
D# ---------------------------------
A# ---------------------------------
F# ---------------------------------
C# ----3-------5--------0-----------
G# ----3-X3----5-X3-----0-----------
C# ----3-------5--------0-----------


D# -----------------------------------------------
A# -----------------------------------------------
F# ----------------------------------------------- X3
C# -----------------------------------------------
G# -----------------------------------------------
C# ----4-5--4-5--4-5-----4-7*---------------------


D# -----------------------------------------------
A# -----------------------------------------------
F# ----------------------------------------------- X6
C# ---0----7-~-------------------------------------
G# ---0----7-~-------------------------------------
C# ---0----5-~-------------------------------------


AQUI ESTA LA CANCION SI TIENEN ALGUNA DUDA AQUI LES DEJO MI CORREO
titijosue@

Dios les bendiga

            
            
Suggest correction
Creating personal tab
Creating personal tab
You can edit any tab online and save it as your Personal.

You can edit, replace or remove any tab part or add personal notes – all changes will be seen only by you.

Personal tabs can be accessed anytime from any device, even offline.
Learn more »
Give kudos to tab author, rate the tab!
1 2 3 4 5
comments
print report bad tab
guest
Wanna post a correction for this tab? Suggest correction