Oops, an error
Loading. Please wait.

Poema De Salvación tab

version 2
version 2

Whole song

Interactive

126 views 3 this week
no commentswrite comment
1 2 3 4 5
3 more votes to show rating
add to favorites
×
Save as Personal and add changes to this tab that will be seen only by you. Learn more ›
×
You can save this tab as Personal to edit and correct it or add notes. All changes will be seen only by you. Learn more »
launch autoscroll
font size
0
reset
how to read this tab
guitar tuner
edit
Autoscroll
slow
fast
+/-
esc
set tempo
stop
Hola hola mis amigos, les traigo algo que muchos
de ustedes han estado buscando: "la versión arpegeada
de Poema de Salvación" espero sea de bendición, saludos


INTRO x2
  C           G      A      F           G    C
E----------------------------------------------------
A-3-------------2-----------------------------2-----3
D-----------------------2-------3-----3-------------2
G---0---0---------0-----2-0/2------------------------
B---------------3---3---1-----1-3-3-1-1-1h3---3-3-1-1
e-----3---1-0-0-------0---------------------0--------


                17         Estrofa

  Cristo moriste en una  cruz, resu ci tas te  con
  C             B       A  F             G      C
E------------------------------------------------------------
A----------------------------------------------2-------3-----
D-10----------10---9-------7---3-------2---------------------
G----12---12---------10----9-----2---------0-----0-------0---
B----------------------------------1-----1-----3---3-------1-
e------12-----12-------10--8---1-----3-3-----3-------0-3----3


  poder
  C
E-------
A-3-----
D-------
G---0---
B-----1-
e-3----3
37

 Perdona mis pe  cados  hoy se mi Señor   y Salva dor
  C              B      A    F             G       C
E--------------------------------------------------------------
A------------------------------------------------2-------3-----
D-10----------10---9-------7-----3-------2---------------------
G----12---12---------10----9-------2---------0-----0-------0---
B------------------------------------1-----1-----3---3-------1-
e------12-----12-------10--8-----1-----3-3-----3-------0-3----3


                                  Coro

                 Cambiame y hazme otra  vez
  C              F               G      Am7
E----------------------------------------------------
A-3-------3--------8---------8-------2---------------
D--------------------------------------------2-------
G---0-----------------0--------0-------0-------0-----
B-----1---3-------------8--------8---3---3-------1---
e-3-----3---0-3/5--8------8--8-----8-------0-3-----3-

  ayu  da  me a serte fiel
  F            G      C
E--------------------------------
A----------------2---------------
D-3--------2-------------3-------
G---2----------0---0-------0-----
B-----1------1---3---3-------1---
e-3-----3--3-----------0-3-----3-

Cambiame y hazme otra  vez   ayu  da me a serte  fiel
  F             G      Am7    F           G      C

E---------------------------------------------------------------
A-----------------2-----------------------------2---------------
D-3-------3---------------2-------3-------2-------------3-------
G---2-------2-------0-------0-------2---------0---0-------0-----
B-----1-------1---3---3-------1-------1-----1---3---3-------1---
e-3-----3-3-----3-------0-3-----3-3-----3-3-----------0-3-----3-

Luego se repite todo...

Dios los bendiga
Suggest correction
Creating personal tab
Creating personal tab
You can edit any tab online and save it as your Personal.

You can edit, replace or remove any tab part or add personal notes – all changes will be seen only by you.

Personal tabs can be accessed anytime from any device, even offline.
Learn more »
Give kudos to tab author, rate the tab!
1 2 3 4 5
comments
print report bad tab
guest
Wanna post a correction for this tab? Suggest correction