Oops, an error
Loading. Please wait.

Vuelvo A Tí tab

202 views 1 this week
no commentswrite comment
1 2 3 4 5
3 more votes to show rating
add to favorites
×
Save as Personal and add changes to this tab that will be seen only by you. Learn more ›
×
You can save this tab as Personal to edit and correct it or add notes. All changes will be seen only by you. Learn more »
launch autoscroll
font size
0
reset
how to read this tab
guitar tuner
edit
Autoscroll
slow
fast
+/-
esc
set tempo
stop
E-----------------------------------------------------|
B--10--10---10-12----12---12-13----13----13-----------|
G-----9---9-------11----11------12----12--------------|
D-------7---7--------9-----9------10-----10-----------|
A-----------------------------------------------------|
E ----------------------------------------------------|
Es un arpejio sobre las notas  la sim do re

E--10----10----10--10----10----12-10----10------------|
B-----10----10-------10----10--------10---------------
G-------10-----10------10----10-----------------------
D-----------------------------------------------------|
A-----------------------------------------------------|
E ----------------------------------------------------|

E---9----9-----10-9----9----------------------------
B----10----10-------10-----------------------------
G-------9-----9-------------------------------------
D-------------------------7---------------------------|
A-----------------------------------------------------|
E ----------------------------------------------------|

INTRO: Am - Bm - C - G - D

 Am        Bm             C                            D
Alguien quiere hablarme a mi, alguien quiere cuidar de mi
                      Am
ese Amor que no me olvida,
Am       Bm          C                     D
No importo si le falle No importo si lo deje
                    Am
ese Amor que no me olvida,

  Cm            A
Dejando mis problemas detras
Fm                    D
trato de saber quien sos, que haras?
Cm                   A                Fm
mas que una esperanza a mi alma das
         D
Vuelvo a ti.

Cuando me veo en tus ojos cuando te veo en mis ojos
ese Amor que no me olvida,
renunciar al juego asi dejar que tu juegues por mi
le da sentido a mi vida.

Dejando mis...

  Cm             A                       Fm
Tan fuerte es este amor no hay espacio no hay lugar,
         D
esperando una señal,
  Cm          A                         Fm                   Cm
sin miedos a correr hacia la inmensidad de una promesa eternal.
Cm        Cm           Cm
Eternal, eternal, eternal.

D - Cm - E - Cm - D - Cm - (UN GOLPE C/CUERDA EN LA 5TA)

Dejando mis ...
Tan fuerte...

Espero les ayude D.L.B.M.
ES MI 1RE TEMA AGREGADO SI QUIEREN ALGUNOS ESPECIFICOS
LOS PUEDO SACAR Y PASAR
GONZALO GIORGIANI (MONKY140481@

            
            
Suggest correction
Creating personal tab
Creating personal tab
You can edit any tab online and save it as your Personal.

You can edit, replace or remove any tab part or add personal notes – all changes will be seen only by you.

Personal tabs can be accessed anytime from any device, even offline.
Learn more »
Give kudos to tab author, rate the tab!
1 2 3 4 5
comments
print report bad tab
guest
Wanna post a correction for this tab? Suggest correction