Oops, an error
Loading. Please wait.

No Se Sienta Sola tab

35 views 1 this week
no commentswrite comment
1 2 3 4 5
3 more votes to show rating
add to favorites
×
Save as Personal and add changes to this tab that will be seen only by you. Learn more ›
×
You can save this tab as Personal to edit and correct it or add notes. All changes will be seen only by you. Learn more »
launch autoscroll
font size
0
reset
how to read this tab
guitar tuner
edit
Autoscroll
slow
fast
+/-
esc
set tempo
stop
  SOLm            SOLm                    DOm7
E-------------------------------------------------------------|
B-------------------------------------------------------------|
G-0-2-2--0-2-2----0/2/3---0/2/3---0/2/3--0-0/2/3---0/2/3------|
D----------------------0-------0----------------1--------1----|
           FA                       LA#-RE
E------------------------------------------------|
B------------------------------------------------|
G-0/2/3--0-0/2/3---0/2/3--0-0/2/3---0/2/3--------|
D---------------1-------1----------------0-------|
        SOLm         DOm7               FA
E-6-5---------6--------6/8--6--0-5-6--0-5-6--0-5-6/10-10-7/12-|
B----8-6-8------8-6-8--8/10-8---------------------------------|
G-------------------------------------------------------------|
D----------8-8------------------------------------------------|
          LA#-RE          SOLm       DOm7         FA
E-0-5-6-7-8-8-6-8---5-6-------5-6-------6/8--6----14-10-------|
B---------------------8-6-8------8-6-8--8/10-8---14----12-11--|
G-----------------------------------------------14------------|
D----------------------------------------------14-------------|
           LA#-RE
E-----------------------|
B-----9-10-11-10-8-7----|
G---10------------------|
D-11--------------------|

SOLm                                  DOm7
    No se sienta sola usted no está solita
         FA                        LA#
    Solo míreme a los ojos y dese cuenta
                 RE             SOLm
    Que tiene un corazón que la cuida

                    DOm7
    Ya cambie esa carita
          FA
    Busco frases dentro e mi mente
            LA#             RE
    Pa consolarla y hacerla sonreír

FA                        LA#             RE
    No se piense que yo quiero aprovechaaaar
                   SOLm
    Pero puede acercarse un poco más

FA                   LA#          RE
   Solo sepa que este loco de amoooor
                                           SOLm
    Quiere un chance para entrar en su corazón

CORO
Solm     Que por las noches cuando duermas
                  DOm7
    Tú pienses en mí, mi amor
FA                                              LA#
    Que por las noches cuando rezes tú pida por mí
               RE
    Que no nos puedan separar

SOLm                        DOm7
    Que cuando estemos tú y yo mirando al cielo
               FA                       LA#
    Tocando estrellas refugiados por la luna
                 RE
    Formando una cuna de pasión
SOLm                    DOm7
    Que cuando   oyendo una canción de amor
             FA             LA#  RE    SOLm
    Tú me imagines cerca de tiiiii

         SOLm         DOm7            FA               LA#
E----7-8-6----7-8-6-5-6-5--------7-8-8/10-8-8-10-11^-10-10/8---|
B---9--------9-----------8-8----9------------------------------|
G--9--------9------------------9-------------------------------|
D-9--------9------------------9--------------------------------|
           RE
E-8----7---5----5-5-5/6-6-5/3-/10-------|
B---10---8---7--------------------------|
G---------------------------------------|
D---------------------------------------|
   SOLm              DOm7              FA             LA#
E-------------------------------------------------------|
B----------------------------------11-------------------|
G---7/8-7/8-7-----7^----7/8-7/8-11^--11-8-6/7-8-7-------|
D-9----------10-8---9-8---------------------------10-8--|
       RE
E--------------------------------8--|
B--------------------------8--------|
G------7/8-7---------7-6/7---6/7----|
D-8-10-------10-8-10----------------|

(Se repite todo)


    DOm7          FA                LA#
    No se sienta sola y déjese querer
                   SOLm                DOm7
    Al roce de sus manos sintiendo su piel
                RE                   SOLm
    Levante esa carita que la quiero ver
                 SOLm                   DOm7
    La luz de su sonrisa que me da el valor
                  FA                  LA#
    Pa confesarle lo que siento con temor
                    SOLm             DOm7
    Que todo lo que digo no sea suficiente
                  RE                  SOLm
    Son esos ojos suyos los de mi canción

                  SOLm                    DOm7
    Tan solo dese cuenta que este loco de amor
FA                 LA#  SOLm                    DOm7
    Espera por su amor,      no es solo una ilusión
                 RE                   SOLm
    Este es el momento para estar los dos

SOLm                                  DOm7
    No se sienta sola usted no está solita
         FA                        LA#
    Solo míreme a los ojos y dese cuenta
                 RE
    Que tiene un corazón que quiere latir en su piel

SOLm - DOm7 - FA - LA# - RE - SOLm
?
   DOm7  SOLm  FA    LA#   RE
E|--3--|--3--|--1--|--1--|--2--|
B|--4--|--3--|--1--|--3--|--3--|
G|--3--|--3--|--2--|--3--|--2--|
D|--5--|--5--|--3--|--3--|--0--|
A|--3--|--5--|--3--|--1--|--0--|
E|--x--|--3--|--1--|--1--|--0--|

Espero que la disfruten
xavivq_21@
Suggest correction
Creating personal tab
Creating personal tab
You can edit any tab online and save it as your Personal.

You can edit, replace or remove any tab part or add personal notes – all changes will be seen only by you.

Personal tabs can be accessed anytime from any device, even offline.
Learn more »
Give kudos to tab author, rate the tab!
1 2 3 4 5
comments
print report bad tab
guest
Wanna post a correction for this tab? Suggest correction