Oops, an error
Loading. Please wait.

Entre Dos Aguas bass

version 2
version 2

Whole song

Interactive

408 views 3 this week
no commentswrite comment
1 2 3 4 5
3 more votes to show rating
add to favorites
×
Save as Personal and add changes to this tab that will be seen only by you. Learn more ›
×
You can save this tab as Personal to edit and correct it or add notes. All changes will be seen only by you. Learn more »
launch autoscroll
font size
0
reset
guitar tuner
backing track
0:00
0:00
edit
Autoscroll
slow
fast
+/-
esc
set tempo
stop
Esta melodía tiene 3 fases, esta es la primera que se repite
continuamente, hasta el primer corte

G--------------------------
D--------------------------
A--1----1---1--2--3----3---
E-----1---1----------3-----

Este es la segunda fase de la melodia que se repide continuamente

G--------------------------------------------------------
D--3---3---3---------------------------------------------
A----2---2----5---5---5--3---3---3---3--2---2---2---2----
E---------------6---6------4---4---4------3---3---3------

Y esta es la ultima fase que la dicta la melodia igual se repite
hasta el final

G-----------------------
D--3---3---3------------
A----2---2----5---5---5-
E---------------6---6---

Espero la disfruten

Julio González
Porlamar, Venezuela
sjrgp@

            
            
Suggest correction
Creating personal tab
Creating personal tab
You can edit any tab online and save it as your Personal.

You can edit, replace or remove any tab part or add personal notes – all changes will be seen only by you.

Personal tabs can be accessed anytime from any device, even offline.
Learn more »
Give kudos to tab author, rate the tab!
1 2 3 4 5
comments
print report bad tab
guest
Wanna post a correction for this tab? Suggest correction