Oops, an error
Loading. Please wait.

Romance Anonimo tab

version 2
version 2

Whole song

207 views 1 this week
no commentswrite comment
1 2 3 4 5
3 more votes to show rating
add to favorites
×
Save as Personal and add changes to this tab that will be seen only by you. Learn more ›
×
You can save this tab as Personal to edit and correct it or add notes. All changes will be seen only by you. Learn more »
launch autoscroll
font size
0
reset
how to read this tab
guitar tuner
edit
Autoscroll
slow
fast
+/-
esc
set tempo
stop
Un saludo a todos mis excompañeros del cetis,un saludo a la
leslie del cetis 107 y de el fracc. horizontes,y a mis amigos
y esta kansion la sake por ke el profe de guitarra me pidio la
cansion bien  saludo a todos en culiacan sinaloa,espero
les guste esta cansion.

Primera parte(x2)
E menor

    |     |     |        |     |     |       |     |     |
E-|-7-----7-----7-----|--7-----5-----3-----|-3-----2-----0-----|
B-|---0-----0-----0---|----0-----0-----0---|---0-----0-----0---|
G-|-----0-----0-----0-|------0-----0-----0-|-----0-----0-----0-|
D-|-------------------|--------------------|-------------------|
A-|-------------------|--------------------|-------------------|
E-|-0-----------------|--0-----------------|-0-----------------|


    |     |     |        |     |     |       |     |     |
E-|-0-----3-----7-----|--12----12----12----|-12----10----8-----|
B-|---0-----0-----0---|----0-----0-----0---|---9-----9-----9---|
G-|-----0-----0-----0-|------0-----0-----0-|-----9-----9-----9-|
D-|-------------------|--------------------|-------------------|
A-|-------------------|--------------------|-------------------|
E-|-0-----------------|--0-----------------|-0-----------------|


    C5-----------------------------------   C7---------------
    |     |     |        |     |     |       |     |     |
E-|-8-----7-----5-----|--5-----7-----8-----|-7-----8-----7-----|
B-|---5-----5-----5---|----5-----5-----5---|---7-----7-----7---|
G-|-----5-----5-----5-|------5-----5-----5-|-----8-----8-----8-|
D-|-------------------|--------------------|-------------------|
A-|-0-----------------|--0-----------------|-------------------|
E-|-------------------|--------------------|-7-----------------|


    C7---------------
    |     |     |        |     |     |       |     |     |
E-|-11----8-----7-----|--7-----5-----3-----|-3-----2-----0-----|
B-|---7-----7-----7---|----0-----0-----0---|---0-----0-----0---|
G-|-----8-----8-----8-|------0-----0-----0-|-----0-----0-----0-|
D-|-------------------|--------------------|-------------------|
A-|-------------------|--------------------|-------------------|
E-|-7-----------------|--0-----------------|-0-----------------|


    |     |     |        |     |     |       |     |     |
E-|-2-----2-----2-----|--2-----3-----2-----|-0-----0-----0-----|
B-|---0-----0-----0---|----0-----0-----0---|---0-----0-----0---|
G-|-----2-----2-----2-|------2-----2-----2-|-----0-----0-----0-|
D-|-------------------|--------------------|-2-----------------|
A-|-0-----------------|--2-----------------|-------2-----------|
E-|-------------------|--------------------|-------------3-----|


    |     |     |
E-|(0================-||
B-|)0================-||
G-|(0================*||
D-|)2================*||
A-|(2================-||
E-|)0================-||


Parte 2
E mayor


                                          C2--------------
    |     |     |        |     |     |       |     |     |
E-|-4-----4-----4-----|--4-----2-----0-----|-------------------|
B-|---0-----0-----0---|----0-----0-----0---|-5-----4-----4-----|
G-|*----1-----1-----1-|------1-----1-----1-|---2-----2-----2---|
D-|*------------------|--------------------|-----4-----4-----4-|
A-|-------------------|--------------------|-0-----------------|
E-|-0-----------------|--0-----------------|-------------------|


    C2---------------   C7----------------------------------
    |     |     |        |     |     |       |     |     |
E-|-------------------|--9-----9-----9-----|-9-----11---9------|
B-|-4-----3-----4-----|----7-----7-----7---|---7-----7-----7---|
G-|---2-----2-----2---|------8-----8-----8-|-----8-----8-----8-|
D-|-----4-----4-----4-|--------------------|-------------------|
A-|-0-----------------|--------------------|-------------------|
E-|-------------------|--7-----------------|-7-----------------|

                                             C9--------------
    |     |     |        |     |     |       |     |     |
E-|-9-----7-----7-----|--7-----9-----11----|-12----12----12----|
B-|---9-----9-----9---|----9-----9-----9---|---9-----9-----9---|
G-|-----9-----9-----9-|------9-----9-----9-|-----9-----9-----9-|
D-|-------------------|--------------------|-------------------|
A-|-------------------|--------------------|-------------------|
E-|-0-----------------|--0-----------------|-0-----------------|

    C9---------------   C5----------------------------------
    |     |     |        |     |     |       |     |     |
E-|-12----11----10----|--9-----9-----9-----|-9-----7-----5-----|
B-|---9-----9-----9---|----10----10----10--|---10----5-----5---|
G-|-----9-----9-----9-|------9-----9-----9-|-----9-----5-----5-|
D-|-------------------|--------------------|-------------------|
A-|-------------------|--0-----------------|-0-----------------|
E-|-0-----------------|--------------------|-------------------|

                               C2---
    |     |     |        |     |     |       |     |     |
E-|-4-----4-----4-----|--4-----5-----2-----|-0-----0-----0-----|
B-|---0-----0-----0---|----4-----4-----2---|---0-----0-----0---|
G-|-----1-----1-----1-|------4-----5-----2-|-----1-----1-----1-|
D-|-------------------|--------------------|-2-----------------|
A-|-------------------|--------------------|-------2-----------|
E-|0------------------|--2-----------------|-------------4-----|

    |     |     |
E-|(0================-||
B-|)0================-||
G-|(1================*||
D-|)2================*||
A-|(2================-||
E-|)0================-||

Primera parte
E menor

    |     |     |        |     |     |       |     |     |
E-|-7-----7-----7-----|--7-----5-----3-----|-3-----2-----0-----|
B-|---0-----0-----0---|----0-----0-----0---|---0-----0-----0---|
G-|-----0-----0-----0-|------0-----0-----0-|-----0-----0-----0-|
D-|-------------------|--------------------|-------------------|
A-|-------------------|--------------------|-------------------|
E-|-0-----------------|--0-----------------|-0-----------------|


    |     |     |        |     |     |       |     |     |
E-|-0-----3-----7-----|--12----12----12----|-12----10----8-----|
B-|---0-----0-----0---|----0-----0-----0---|---9-----9-----9---|
G-|-----0-----0-----0-|------0-----0-----0-|-----9-----9-----9-|
D-|-------------------|--------------------|-------------------|
A-|-------------------|--------------------|-------------------|
E-|-0-----------------|--0-----------------|-0-----------------|


    C5-----------------------------------   C7---------------
    |     |     |        |     |     |       |     |     |
E-|-8-----7-----5-----|--5-----7-----8-----|-7-----8-----7-----|
B-|---5-----5-----5---|----5-----5-----5---|---7-----7-----7---|
G-|-----5-----5-----5-|------5-----5-----5-|-----8-----8-----8-|
D-|-------------------|--------------------|-------------------|
A-|-0-----------------|--0-----------------|-------------------|
E-|-------------------|--------------------|-7-----------------|


    C7---------------
    |     |     |        |     |     |       |     |     |
E-|-11----8-----7-----|--7-----5-----3-----|-3-----2-----0-----|
B-|---7-----7-----7---|----0-----0-----0---|---0-----0-----0---|
G-|-----8-----8-----8-|------0-----0-----0-|-----0-----0-----0-|
D-|-------------------|--------------------|-------------------|
A-|-------------------|--------------------|-------------------|
E-|-7-----------------|--0-----------------|-0-----------------|


    |     |     |        |     |     |       |     |     |
E-|-2-----2-----2-----|--2-----3-----2-----|-0-----0-----0-----|
B-|---0-----0-----0---|----0-----0-----0---|---0-----0-----0---|
G-|-----2-----2-----2-|------2-----2-----2-|-----0-----0-----0-|
D-|-------------------|--------------------|-2-----------------|
A-|-0-----------------|--2-----------------|-------2-----------|
E-|-------------------|--------------------|-------------3-----|

Al final se toca la cuerda dos en el traste 12 seguido de la
primera en el 12 traste.

esta cansion esta muy bonita espero la sepan tocar,esta esta
mejor sacada ke las de los otros.

            
            
Suggest correction
Creating personal tab
Creating personal tab
You can edit any tab online and save it as your Personal.

You can edit, replace or remove any tab part or add personal notes – all changes will be seen only by you.

Personal tabs can be accessed anytime from any device, even offline.
Learn more »
Give kudos to tab author, rate the tab!
1 2 3 4 5
comments
print report bad tab
guest
Wanna post a correction for this tab? Suggest correction