Oops, an error
Loading. Please wait.

El Lagarto Está Llorando chords

218 views 3 this week
no commentswrite comment
1 2 3 4 5
3 more votes to show rating
add to favorites
×
Save as Personal and add changes to this tab that will be seen only by you. Learn more ›
×
You can save this tab as Personal to edit and correct it or add notes. All changes will be seen only by you. Learn more »
launch autoscroll
font size
0
reset
transpose
0
reset
simplify chords
display chords
guitar tuner
edit
Autoscroll
slow
fast
+/-
esc
set tempo
stop
Strumming
There is no strumming pattern for this song yet. and get +5 IQ
(Federico García Lorca / música de Paco Ibañez)

Esta transcripcion no es completamente mia. Encontré en
Internet algunos elementos correctores pero he perdido
las referencias de su  envio
porque se encuentra en peticiones.

e----------------------------------------------------
b----------------------------------------9-----------
g----------------------------------------------------
d----------------------------------------11----------
a-11--12-11-12--11-12--11--12-11-9---11--11----------
e----------------------------------9-----9-----------

     C#m
El lagarto está llorando.
                      F#m
La lagarta está llorando.
      B            E
El lagarto y la lagarta
   G#      G#4    G#  C#m
con delantalitos blancos.
                                           G#4
e-------------------------------------------4--------
b-9--10-9-10--9-10---9--10--9--7----9--9----2--------
g--------------------------------6----------1--------
d-------------------------------------------1--------
a-------------------------------------------X--------
e-------------------------------------------X--------

Han perdido sin querer
El lagarto y la lagarta
Han perdido sin querer
su anillo de desposados.

   F#m               D
i Ay, su anillo de plomo,
                       F#m     G#      G#4
i Ay ! su anillito plomado !  i Ay ! i Ay !

i Miralos qué viejos son !
i El lagarto y la lagarta !
i Miralos qué viejos son !
i Qué viejos son los lagartos !

i Ay, cómo lloran y lloran,
cómo lloran los lagartos !
i Ay, cómo lloran y lloran,
cómo están llorando !
                                        Eadgbe
Mezzo o intro ( no sé )          G#4 :  XX1124

            
            
Suggest correction
Creating personal tab
Creating personal tab
You can edit any tab online and save it as your Personal.

You can edit, replace or remove any tab part or add personal notes – all changes will be seen only by you.

Personal tabs can be accessed anytime from any device, even offline.
Learn more »
Give kudos to tab author, rate the tab!
1 2 3 4 5
comments
print report bad tab
guest
Wanna post a correction for this tab? Suggest correction