Oops, an error
Loading. Please wait.

Erase Una Vez tab

version 2
version 2

Whole song

197 views 1 this week
no commentswrite comment
1 2 3 4 5
3 more votes to show rating
add to favorites
×
Save as Personal and add changes to this tab that will be seen only by you. Learn more ›
×
You can save this tab as Personal to edit and correct it or add notes. All changes will be seen only by you. Learn more »
launch autoscroll
font size
0
reset
how to read this tab
guitar tuner
edit
Autoscroll
slow
fast
+/-
esc
set tempo
stop
Erasé una vez    Letra de J.A. Goytisolo   Música de P. Ibañez

Colocar el capodastro ( cejilla ) en el segundo traste
(esta transcripción es una aproximación de la bellísima interpretación de Paco Ibañez ).
 Me gustaría que  editase un fascículo con las partituras o cifrados de sus canciones.


Intro:los dedos de la mano izquierda deben de tocar el traste inferior para dar
un efecto de harmónico.

---14---14---14---12---11----------11---11---12---14---12---11-
---------------------------------------------------------------
---------------------------------------------------------------
---------------------------------------------------------------
----------------------------9----------------------------------
------------------------7-----------7-------------11-----------


--9---12---12---12---11---12---11---9---9---9---11---12---11---9---7-
---------------------------------------------------------------------
---------------------------------------------------------------------
---------------------------------------------------------------------
--9---------------------------------9---------------------9----9---6-
-------------------------------------------------------------------7-

                    LA    MI7                                     LA
--------------------5-----0---------------------------------------5--
--------------------5-----3---------------------------------------5--
--------------------6-----1---------------------------------------6--
--------------------7-----2---------------------------------------7--
--4----------7------7-----2---------------------------------------7--
--5----------5------5-----0---------------------------------------5--
  Erase una vez un lobito bueno   Al que maltrataban todos los corderos


LA                       MI7
Erase una vez un lobito bueno
                                LA
Al que maltrataban todos los corderos

LA                         MI7
Había también un príncipe malo         
                                 LA    bis
Una bruja hermosa y un pirata honrado  

LA                MI7
Todas esas cosas había una vez         
                                LA     bis
Cuando yo soñaba un mundo al revés     

Final : --9------5----
        --10-----5----
        --9------6----
        ---------7----
        ---------7----
        ---------5----

            
            
Suggest correction
Creating personal tab
Creating personal tab
You can edit any tab online and save it as your Personal.

You can edit, replace or remove any tab part or add personal notes – all changes will be seen only by you.

Personal tabs can be accessed anytime from any device, even offline.
Learn more »
Give kudos to tab author, rate the tab!
1 2 3 4 5
comments
print report bad tab
guest
Wanna post a correction for this tab? Suggest correction