Oops, an error
Loading. Please wait.

La Gran Pérdida De Alhama chords

107 views 1 this week
no commentswrite comment
1 2 3 4 5
3 more votes to show rating
add to favorites
×
Save as Personal and add changes to this tab that will be seen only by you. Learn more ›
×
You can save this tab as Personal to edit and correct it or add notes. All changes will be seen only by you. Learn more »
launch autoscroll
font size
0
reset
transpose
0
reset
display chords
guitar tuner
edit
Autoscroll
slow
fast
+/-
esc
set tempo
stop
Strumming
There is no strumming pattern for this song yet. and get +5 IQ
Anónimo- música de Paco Ibaez
A flor de tiempo ( 1967 y 2002 )
INTRO : 2 VECES
   Am
E-----------------
B-----5-----------
G---5---5---5-----
D---------7-------
A--------------7--
E-5-------------5-

CANCION
   Am
E---------------------------------------------------------------------
B------5----------------5-------------------5---------------5---------
G----5---5---5--------5---5---5-----------5---5---5-------5---5---5---
D----------7----------------7-------------------7---------------7-----
A---------------7----------------7-------------------7--------------7-
E-5----------------5-----------------5-----------------5--------------

 Paseábase el rey moro -           por la ciudad de Granada


   Am             LA#                LAm
E---------------------------------------------------------------------
B------5----------------6-------------------5---------------5---------
G----5---5---5--------6---6---6-----------5---5---5-------5---5---5---
D----------7----------------8-------------------7---------------7-----
A---------------7----------------8-------------------7--------------7-
E-5----------------6-----------------5-----------------5--------------

 desde la puerta de Elvira -         hasta la de Vivarrambla.


   Am             G     F        LAm
E----------------------------------------------------------------------
B------5----------------3---------1----------5---------------5---------
G----5---5---5--------4---4-----2--2------5---5---5-------5---5---5----
D----------7------------------------------------7---------------7------
A---------------7------------------------------------7---------------7-
E-5----------------3--------1---------5-----------------5--------------

 Cartas lefueron veni       das      cómo Alhama era ganada.


   Am
E------------------
B-----5------------
G---5---5---5------
D---------7------7-
A--------------7---
E-5---------------3

                 G*FA F                             Rém*     E*
 - A             A   A  Ay de E Alhama! ¡Ay de mi Alhama- A   ¡Ay!-


por el Zacatín arriba - subido había al Alhambra.
mandó toquar sus trompetas, - sus añafiles de plata.
porque lo oyesen los moros, - Que andaban por el arada.

                 G*FA F                             Rém*     E*
 - A             A   A  Ay de E Alhama! ¡Ay de mi Alhama- A   ¡Ay!-


Allí habló un viejo alfaquí, - de barba vellida y cana:
-¿Para qué nos mandas, rey, - para qué es esta llamada?
para que sepáis , amigos, - la gran pérdida de Alhama:

                 G*FA F                             Rém*     E*
 - A             A   A  Ay de E Alhama! ¡Ay de mi Alhama- A   ¡Ay!-


   Am
E-----------------
B-----5-----------
G---5---5---5-----   Dos veces + Lam
D---------7-------
A--------------7--
E-5-------------5-


Lam : 577555
Sol : 355433
Fa  : 133211
Rém : 000231
Mi  : 022100

Sol*: 320001
Rém*: 557765
Mi* : 779997
Suggest correction
Creating personal tab
Creating personal tab
You can edit any tab online and save it as your Personal.

You can edit, replace or remove any tab part or add personal notes – all changes will be seen only by you.

Personal tabs can be accessed anytime from any device, even offline.
Learn more »
Give kudos to tab author, rate the tab!
1 2 3 4 5
comments
print report bad tab
guest
Wanna post a correction for this tab? Suggest correction