Oops, an error
Loading. Please wait.

No Te Pude Ver chords

38 views 1 this week
no commentswrite comment
1 2 3 4 5
3 more votes to show rating
add to favorites
×
Save as Personal and add changes to this tab that will be seen only by you. Learn more ›
×
You can save this tab as Personal to edit and correct it or add notes. All changes will be seen only by you. Learn more »
launch autoscroll
font size
0
reset
transpose
0
reset
display chords
guitar tuner
edit
Autoscroll
slow
fast
+/-
esc
set tempo
stop
Strumming
There is no strumming pattern for this song yet. and get +5 IQ
No te pude ver   - YERMA - F. G. Lorca

Musica de Paco Ibanez
Por una cancion- 2002

Afinad la guitarra un tono mas bajo

INTRO

D--------------------------------------------------------------
A--------------------------------------------------------------
F-----4--5-3t4------------------4-------------4--4-------------
C-5-7------------7--5------5-7-----7----5--7--------5--5-------
G----------------------8--------------8------------------8---7-
D--------------------------------------------------------------


D--------------------------------------------------------------
A--------------------------------------------------------------
F--------------------------------------------------------------
C--------------------------------------------------------------
G------2-3-1t2-------------------2-------------2--2------------
D-3-5----------5--3---1---3---5-----5--1--3--5------3--3--1--0-


CANCION


           Em                         F
No te pude ver...........      cuando eras soltera.........
                        E
mas de casada te encontraré............

         Em                               F
Te desnudaré.............       casada y romera...........
                              E
cuando en la sombra las doce dén..........
Suggest correction
Creating personal tab
Creating personal tab
You can edit any tab online and save it as your Personal.

You can edit, replace or remove any tab part or add personal notes – all changes will be seen only by you.

Personal tabs can be accessed anytime from any device, even offline.
Learn more »
Give kudos to tab author, rate the tab!
1 2 3 4 5
comments
print report bad tab
guest
Wanna post a correction for this tab? Suggest correction