Oops, an error
Loading. Please wait.

Pobre Martín tab

85 views 1 this week
no commentswrite comment
1 2 3 4 5
3 more votes to show rating
add to favorites
×
Save as Personal and add changes to this tab that will be seen only by you. Learn more ›
×
You can save this tab as Personal to edit and correct it or add notes. All changes will be seen only by you. Learn more »
launch autoscroll
font size
0
reset
how to read this tab
guitar tuner
edit
Autoscroll
slow
fast
+/-
esc
set tempo
stop
(Georges Brassens / Paco Ibañez)
(Traducción: Pierre Pascal)
A flor de tiempo 1979 y 2002

Esta transcripción la hice con la ayuda de un portal
internet en el que se encuentran las tablaturas
de las canciones del disco " Paco Ibaez canta Brassens "


!gracias a este excelente transcriptor!


INTRO
                         deslizar        ^
E-------------------------------------------2-------2-
B-------------------------------------2--3--------2-3-
G---------1--3-----------1---3---3-4----------3-4---4-
D-0-2-4---------0-2-4-------------------------------4-
A----------------------------------------2----------2-
E-------0--------------0----------------------------2-


E------------------
B------------------
G-------------1---3
D----0-2-4---------
A------------------
E-----------0------


CANCION

  Bm
E-----------------------------------
B------7---------7--------7---------
G---7----7----7----7----7----7------
D-----------9-----------------------
A-------------------9---------------
E-7-----------------------------7---

 Bm
Con una azadilla al hombro

Y en la boca un dulce cantar    [bis]

         G    A7    D
Y mucho valor en el alma

 Bm        G         F#7
Se iba al campo a desuñar

 Bm       E    F#7     Bm
Pobre Martín, pobre miseria

          E     F#7      Bm
Cava la tierra sin descansar.


Pa'ganar el pan de su vida
Desde el alba al anochecer
Seguía cavando la tierra
En todo tiempo y por doquier.
Pobre Martín, pobre miseria
Cava la tierra sin descansar.

Sin poner buena o mala cara,
Sin tener celos ni rencor,
Labraba los campos ajenos
Cavando siempre con ardor
Pobre Martín, pobre miseria
Cava la tierra sin descansar.

Y cuando le avisó la muerte,
Que por fin llegaba al final,
Abriéndose la propia tumba
Ganó su último jornal,
Pobre Martín, pobre miseria
Cava la tierra sin descansar.

Abriéndose la propia tumba
Ganó su último jornal,
Y se tumbó sin decir nada
Ã?l no quería molestar.
Pobre Martín, pobre miseria
Cava la tierra sin descansar.

Nota : tal vez sea mejor acompaarse
de la siguiente manera:

  Bm
E-----------------------------------
B-----3---------3---------3---------
G---4---4-----4---4-----4---4-------
D----------4-------------------4----
A-2------------------2--------------
E-----------------------------------

            
            
Suggest correction
Creating personal tab
Creating personal tab
You can edit any tab online and save it as your Personal.

You can edit, replace or remove any tab part or add personal notes – all changes will be seen only by you.

Personal tabs can be accessed anytime from any device, even offline.
Learn more »
Give kudos to tab author, rate the tab!
1 2 3 4 5
comments
print report bad tab
guest
Wanna post a correction for this tab? Suggest correction