Oops, an error
Loading. Please wait.

Romance Del Pastor Desesperado chords

84 views 1 this week
no commentswrite comment
1 2 3 4 5
3 more votes to show rating
add to favorites
×
Save as Personal and add changes to this tab that will be seen only by you. Learn more ›
×
You can save this tab as Personal to edit and correct it or add notes. All changes will be seen only by you. Learn more »
launch autoscroll
font size
0
reset
transpose
0
reset
display chords
guitar tuner
edit
Autoscroll
slow
fast
+/-
esc
set tempo
stop
Strumming
There is no strumming pattern for this song yet. and get +5 IQ
ROMANCE DEL PASTOR DESESPERADO ( Anónimo )
Música de Paco Ibaòez
"A flor de tiempo" 1978 y reedición 2001

Capodastro en el tercer traste


INTRO

-1----0---0-1----1---1--1-0-0---0---0-1-0--
--------3----------------------3-----------
-------------------------------------------
-------------------------------------------
-------------------------------------------
-------------------------------------------


---0-1---1---1-0-1---0--------0---1---1-----1---0-----------
-3------------------3-------1---3-------------0---0--3------
-----------------------2-2----------------------------------
--------------------------------------------------------3-0-
------------------------------------------------------------
------------------------------------------------------------

CANCION
  Am
------0-----------0-------
------1-----------1-------
---------2-----2-----2----
---2--------2-------------
-0----------------------0-
--------------------------


Am                                 E   Am
Por aquel lirón arriba lindo pastor va llorando
                     E                    Am
Del agua de los sus ojos el gabán lleva mojado


Am                               E    Am
Buscaréis ovejas mías pastor más aventurado
                          E                     Am
Que os lleve a la fuente fría y os caree con su cayado


Am         C      E                  Am
!Adiós adiós compaòeros las alegrías de antaòo!
                  E                      Am
Si me muero deste mal no me enterréis en sagrado


No quiero paz de la muerte pues nunca fui bien amado

Enterréisme en prado verde donde paste mi ganado


Con une piedra que diga " aquí murió un desdichado

Murió del mal del amor que es un mal desesperado"


Ya lo llevan al pastor en medio del verde prado

Al son de un triste cencerro que no hay allí campanario


Tres serranitas le lloran al pie del monte serrano;

Una decía ! ay mi primo! Otra decía ! ay mi hermano!,


La más chiquitita de ellas " adiós lindo enamorado,

Mal te quise por mi mal, siempre viviré penando."

            
            
Suggest correction
Creating personal tab
Creating personal tab
You can edit any tab online and save it as your Personal.

You can edit, replace or remove any tab part or add personal notes – all changes will be seen only by you.

Personal tabs can be accessed anytime from any device, even offline.
Learn more »
Give kudos to tab author, rate the tab!
1 2 3 4 5
comments
print report bad tab
guest
Wanna post a correction for this tab? Suggest correction