Oops, an error
Loading. Please wait.

Un Español Habla De Su Tierra tab

122 views 1 this week
no commentswrite comment
1 2 3 4 5
3 more votes to show rating
add to favorites
×
Save as Personal and add changes to this tab that will be seen only by you. Learn more ›
×
You can save this tab as Personal to edit and correct it or add notes. All changes will be seen only by you. Learn more »
launch autoscroll
font size
0
reset
how to read this tab
guitar tuner
edit
Autoscroll
slow
fast
+/-
esc
set tempo
stop
Capo 4

Intro:  2 veces  ---------0---------------------0-------------------
                 ---------1---------------------1-------------------
                 ----------------2----------------------------------
                 ----3--------------------3------------3--2---------
                 ---------------------------------------------------
                 ---------------------------------------------------


LAm                    FA                      SOL
Las playas parameras,          al rubio sol durmiendo,
                FA                 MI           LAm
los oteros, las vegas,         en paz, a solas, lejos;

LAm                       FA              SOL
los castillos, ermitas,        cortijos y conventos,
                  FA               MI          LAm
la vida con la historia,       tan dulces al recuerdo,

LA7                              Rém
ellos, los vencedores          Caínes sempiternos,
                                               MI
de todo me arrancaron.         Me dejan el destierro.

LAm                      FA                   SOL
Contigo solo estaba,           en ti sola creyendo;
                  FA                 MI        LAm
Pensar tu nombre ahora           envenena mis sueños

                                     ------------ Muy suave-------------
-------0---------0--------------------------0------------------0---------------------0-----------------0--------
-------1---------1--------------------------1------------------1-------------1-------1----------1------1--------
----------2----------2--------------------------2----------------------2-----2-----------2------2------------2--
----3----------3----------3--2--------3-----------------3--------------------3------------------3---------------
----------------------------------------------------------------------------------------------------------------
----------------------------------------------------------------------------------------------------------------


-------0---------0-------------------
-------1---------1-------------------
----------2-----------2--------------
----3---------3-----------3--2------
--------------------------------------
--------------------------------------


LAm                      FA                       SOL
Amargos son los dias               de la vida, viviendo
                 FA                    MI          LAm
sólo una larga espera              a fuerza de recuerdos.

LAm                       FA                      SOL
Un dia tú ya libre                 de la mentira de ellos,
                  FA                            MI       LAm
me buscarás. Entonces             ¿ qué ha de decir un muerto?

LA7                                       REm
Un dia tú ya libre                  de la mentira de ellos,
                                                        MI
me buscaras. Entonces             ¿ que ha de decir un muerto?


LAm                      FA                       SOL
Amargos son los dias               de la vida, viviendo
                  FA                  MI            LAm
sólo una larga espera              a fuerza de recuerdos.

                        ---------0---------------------0--------------------
                        ---------1---------------------1--------------------
                        ----------------2-----------------------------------
                        ----3--------------------3------------3--2----------
                        ----------------------------------------------------
                        ----------------------------------------------------

            
            
Suggest correction
Creating personal tab
Creating personal tab
You can edit any tab online and save it as your Personal.

You can edit, replace or remove any tab part or add personal notes – all changes will be seen only by you.

Personal tabs can be accessed anytime from any device, even offline.
Learn more »
Give kudos to tab author, rate the tab!
1 2 3 4 5
comments
print report bad tab
guest
Wanna post a correction for this tab? Suggest correction