Oops, an error
Loading. Please wait.

Yo Tengo Fé tab

41 views 1 this week
no commentswrite comment
1 2 3 4 5
3 more votes to show rating
add to favorites
×
Save as Personal and add changes to this tab that will be seen only by you. Learn more ›
×
You can save this tab as Personal to edit and correct it or add notes. All changes will be seen only by you. Learn more »
launch autoscroll
font size
0
reset
how to read this tab
guitar tuner
edit
Autoscroll
slow
fast
+/-
esc
set tempo
stop
INTRO: (D)

   D                                           G         A             D
6.----------------------------------------------------------------------
5.----------------------------------------------------------------------
4.----------------------------------------------------------------------
3.----------------------------------------------------------------------
2.-------3---3-------3-----------3---3-------3-0------------------------
1.-2-2-0-------0-2-0---5---2-2-0-------0-2-0-------3-3-2-0---0-2-3-2-0-5--

              A                D
6.--------------------------------
5.--------------------------------
4.--------------------------------
3.--------------------------------
2.-3-------3-------------------3--
1.---0-2-0---5-5---3-3-2-2-0-0----


D
Yo tengo fe
que todo cambiara
que triunfara
                 G
por siempre el amor
         A
yo tengo fe
                 D
que siempre brillara
                  A
la luz de la esperanza
                 D
no se apagara jamas

yo tengo fe
yo creo en el amor
yo tengo fe
                  G
también mucha ilusion
           A
porque yo se
               D
será una realidad
                 A
del mundo de justicia
                     D
que ya empieza a despertar

yo tengo fe
porque yo creo en dios
yo tengo fe
             G
será todo mejor
         A               D
se callara el odio y el dolor
               A
la gente nuevamente
                  D
hablara de su ilusión

yo tengo fe
los hombres cantaran
                           G
una canción de amor universal
          A
yo tengo fe
               D
será una realidad
                A
el mundo de justicia
                       D
que ya empieza a despertar


yo tengo fe que todo cambiara  etc..............


SR CAMACHO SIGA CON SU PROYECTO PARA MINERAL DE LA REFORMA, ANIMO DON VICTOR O.
Suggest correction
Creating personal tab
Creating personal tab
You can edit any tab online and save it as your Personal.

You can edit, replace or remove any tab part or add personal notes – all changes will be seen only by you.

Personal tabs can be accessed anytime from any device, even offline.
Learn more »
Give kudos to tab author, rate the tab!
1 2 3 4 5
comments
print report bad tab
guest
Wanna post a correction for this tab? Suggest correction