Oops, an error
Loading. Please wait.

Cariño Malo tab

126 views 1 this week
no commentswrite comment
1 2 3 4 5
3 more votes to show rating
add to favorites
×
Save as Personal and add changes to this tab that will be seen only by you. Learn more ›
×
You can save this tab as Personal to edit and correct it or add notes. All changes will be seen only by you. Learn more »
launch autoscroll
font size
0
reset
how to read this tab
guitar tuner
edit
Autoscroll
slow
fast
+/-
esc
set tempo
stop
transcripcion: Diego Tobar Dubost, Antofagasta, Chile (24/12/08)


|---t----| = tremolo (se toca la misma cuerda 3 veces
             con los dedos a, m, i [anular, medio e indice)

[10-10-10] = la nota en que se deve hacer tremolo

2/5        = deslizar del traste 2 al 5

5h6p5      = tocar el traste 5, tocar el traste 6 y soltarlo al instante

6====      = mantener LA nota

--------------------------------------------------------------------------
TOCAR CON LOS ACORDES MENCIONADOS AL FINAL
--------------------------------------------------------------------------


INTRO

                                       |---t----|
e|------------------------------8-7-10-------------|
B|---------6-8-9h10p9-6-----6-9--------[10-10-10]--|
G|-2/5-7-8--------------8-6------------------------|
D|-------------------------------------------------|
A|-------------------------------------------------|
E|-------------------------------------------------|


   |---t----|            |---t----|            |---t----|
e|-[13-13-13]-11-11-10---[13-13-13]-11-11-10---[15-15-15]-13-11-|
B|--------------------------------------------------------------|
G|--------------------------------------------------------------|
D|--------------------------------------------------------------|
A|--------------------------------------------------------------|
E|--------------------------------------------------------------|

                                                           |---t----|
e|----------------------------------------------6-7-8-9-10------------|
B|-------6-8-9-8-7------------------------7-8-9------------[10-10-10]-|
G|-5-7-8-----------10-9-8----------8-9-10-----------------------------|
D|------------------------12-11-12------------------------------------|
A|--------------------------------------------------------------------|
E|--------------------------------------------------------------------|


e|-------11----10--8-8/7--------------------------------------11--|
B|------------------------9-9/8--8-8--6-6--4---------------8--8---|
G|-11-12----10-----0====--------------4==--5------------8--8------|
D|------------------------6====--7==----------------10--10--------|
A|---------------------------------------------10--10-------------|
E|---------------------------------------------8------------------|


e|--------------|
B|--------------|
G|--------------|
D|-5h6p5--------|
A|-------8-7-6--|
E|-----------8--|


  Cm      G              Cm  (riff 1)
Hoy, después de nuestro adiós
                    G#    G  (riff 2)
he vuelto a verte cariño malo
 Fm  F#          G (riff 3)
y se ve por tu reír

que aún no sabes
             Cm  (riff 4)
cuanto he llorado


 Cm    G            Cm (riff 1)
Soy sincero al confesar
                     G#    G  (riff 2)
que aún te quiero, cariño malo
 Fm   F#            G   (riff 3)
sin embargo por tu error
                           Cm
todo lo nuestro se ha terminado


(riff 5)

 Fm     C#          Cm  (riff 6)
Si, tu nunca fuiste fiel
               G   G7
y me fingiste aquel
      C#    C7
amor perverso
 Fm             Cm
ten respeto por favor
         D#        G
por mi cariño que aún
        Cm
no ha muerto.


(riff 5)

 Fm     C#          Cm
Si, tu nunca fuiste fiel
               G   G7
y me fingiste aquel
      C#    C7
amor perverso
 Fm             Cm
ten respeto por favor
         D#        G
por mi cariño que aún
        Cm
no ha muerto.


INTRO


  Cm      G              Cm  (riff 1)
Hoy, después de nuestro adiós
                    G#    G  (riff 2)
he vuelto a verte cariño malo
 Fm  F#          G (riff 3)
y se ve por tu reír

que aún no sabes
             Cm  (riff 4)
cuanto he llorado


 Cm    G            Cm (riff 1)
Soy sincero al confesar
                     G#    G  (riff 2)
que aún te quiero, cariño malo
 Fm   F#            G   (riff 3)
sin embargo por tu error
                           Cm
todo lo nuestro se ha terminado


(riff 5)

 Fm     C#          Cm  (riff 6)
Si, tu nunca fuiste fiel
               G   G7
y me fingiste aquel
      C#    C7
amor perverso
 Fm             Cm
ten respeto por favor
         D#        G
por mi cariño que aún
        Cm
no ha muerto.


(riff 5)

 Fm     C#          Cm
Si, tu nunca fuiste fiel
               G   G7
y me fingiste aquel
      C#    C7
amor perverso
 Fm             Cm
ten respeto por favor
         D#        G
por mi cariño que aún
        Cm
no ha muerto.


e|------6-6-----6-6------8-8------10-10-----|
B|-----8--8----8--8----10--10----12--12-----|
G|----8---8---8---8---10---10---12---12-----|
D|---8----8--8----8--10----10--12----12-----|
A|--6-----6-6-----6-8------8--10-----10-----|
E|------------------------------------------|

e|----15------------------------------------|
B|-16----16-15----11----------------------8-|
G|-------------15----12-10/8---------8-10---|
D|---------------------------10/8-10--------|
A|------------------------------------------|
E|------------------------------------------|

--------------------------------------------------

riff 1

e|-15--13--11----15--13--11======-|
B|-16--15--13----16--15--13h14p13-|
G|--------------------------------|
D|--------------------------------|
A|--------------------------------|
E|--------------------------------|

riff 2

e|---8h9p8-8----8h9p8-8-----------|
B|--9------9---9------9-----------|
G|-8-------8--8-------8-----------|
D|--------------------------------|
A|--------------------------------|
E|--------------------------------|

riff 3

e|------10------11------13--------|
B|-----12------13------15---------|
G|--11------12------12------------|
D|--------------------------------|
A|--------------------------------|
E|--------------------------------|

riff 4

e|--------------------------------|
B|-7/9-8h9p8-6h8p6----------------|
G|-----------------8h9p8-7h8p7-5--|
D|--------------------------------|
A|--------------------------------|
E|--------------------------------|

riff 5

e|-11-10-8------------------------|
B|---------11-9-------------------|
G|--------------------------------|
D|--------------------------------|
A|--------------------------------|
E|--------------------------------|

riff 6

e|--15-15---15-15-13-13--11-10--13-12-13---13----12------------|
B|--16-16---16-16-15-15--13-12--15-14-15---15---13--14-13-11-9-|
G|-----------------------------------------15--12--------------|
D|-------------------------------------------------------------|
A|-------------------------------------------------------------|
E|-------------------------------------------------------------|


----------------------------------------------------------------

Acordes:    Cm  C#  C7  D#  Fm  F#  G  G# G7
         e|-3---4---3---6---1---2---3--4--3--|
         B|-4---6---5---8---1---2---3--4--6--|
         G|-5---6---3---8---1---3---4--5--4--|
         D|-5---6---5---8---3---4---5--6--3--|
         A|-3---4---3---6---3---4---5--6--5--|
         E|-3---4---3---6---1---2---3--4--3--|

            
            
Suggest correction
Creating personal tab
Creating personal tab
You can edit any tab online and save it as your Personal.

You can edit, replace or remove any tab part or add personal notes – all changes will be seen only by you.

Personal tabs can be accessed anytime from any device, even offline.
Learn more »
Give kudos to tab author, rate the tab!
1 2 3 4 5
comments
print report bad tab
guest
Wanna post a correction for this tab? Suggest correction