Oops, an error
Loading. Please wait.

Malagueña tab

version 2
version 2

Whole song

1,271 views 3 this week
no commentswrite comment
1 2 3 4 5
1 last vote to show rating
add to favorites
×
Save as Personal and add changes to this tab that will be seen only by you. Learn more ›
×
You can save this tab as Personal to edit and correct it or add notes. All changes will be seen only by you. Learn more »
launch autoscroll
font size
0
reset
how to read this tab
guitar tuner
edit
Autoscroll
slow
fast
+/-
esc
set tempo
stop
Intro   Dm  A7  Dm

(capo 5º traste)
      A7          Dm                         C7
e------------------------------------------------------
B-----0-----0-----0--------------1-----1-0-------------
G--1-1---1-1---1-1---2h1-2---2222--2222----2-2-0--0----
D-2-2---2-2---2-2--------------------------------4-----

            F          Bb                           A7            Dm
e-----------------------1h0-----------------------------------------
B-11-33-0-1-3--0-1---1-3----3-1-3h1-0-1h0---------------------------
G------2----------------------------------2-1-1h21------------------
D--------------------------------------------------2--2-3-2-0-------
A-------------------------------------------------------------3-2-0-

Dm                                          Gm
Que bonitos ojos tienes, debajo de esas dos cejas
 C7                  F       Bb               A7
debajo de esas dos cejas, que bonitos ojos tienes.

Ellos me quieren mirar, pero si tú no los dejas,
pero si tú no los dejas, ni siquiera parpadear.

CORO

A7                  Dm                        C7
Malague-eña salerosa, besar tus labios quisiera
                   F        Bb            A7
be-esar tus labios quisiera, malagueña salerosa,

Y deci-i-irte niña hermosa, que eres linda y hechicera
que eres linda y hechicera, como el candor de una rosa,

Y deci-irte niña hermosa, que eres li-inda y hechicera,
que eres linda y hechicera, como el candor de una rosa,
                          Dm
como el carmí-i-in de una rosa.
Suggest correction
Creating personal tab
Creating personal tab
You can edit any tab online and save it as your Personal.

You can edit, replace or remove any tab part or add personal notes – all changes will be seen only by you.

Personal tabs can be accessed anytime from any device, even offline.
Learn more »
Give kudos to tab author, rate the tab!
1 2 3 4 5
comments
print report bad tab
guest
Wanna post a correction for this tab? Suggest correction