Oops, an error
Loading. Please wait.

Perdón tab

163 views 1 this week
no commentswrite comment
1 2 3 4 5
3 more votes to show rating
add to favorites
×
Save as Personal and add changes to this tab that will be seen only by you. Learn more ›
×
You can save this tab as Personal to edit and correct it or add notes. All changes will be seen only by you. Learn more »
launch autoscroll
font size
0
reset
how to read this tab
guitar tuner
edit
Autoscroll
slow
fast
+/-
esc
set tempo
stop
Introducción  (2 veces)
                       E                                        Am
e|---17---------------------------13-12h13p12-----------------------|
b|-17--18p17-17-------12--12-13-15-----------15-13-12h13p12---------|
g|--------------19P17---13---------------------------------14-13-14-|

Am        E          Am
Perdón,      Vida de mi vida
e|--------------------------0005-0007-0008-0007-0005-|
b|---------------------------------------------------|
g|-----7-10-9----------------------------------------|
d|-----7-10-9----------------------------------------|

    A                    A7
perdón,                  si es que te he fal
e|-----6-5----------------------------------|
b|--------6-5-------------------------------|
g|-----------7-6----------------------------|
d|--------------7s8s7s8-7-------------------|
a|------------------------------------------|

   Dm
   tado
e|----------10-12-13-13-12-12-10-10---------------------|
b|--------10-----------------------10-10----------------|
g|------10------------------------------10-10-----------|
d|-12-14-------------------------------------14-14------|
a|------------------------------------------------12-12-|

   E                     Am
perdón,        cariñito amado
e|-----7--8-10-----------------------5-7-8-8-|
b|-----9-10--9---------------------7---------|
g|-----9--9--9---------------9-8-9-----------|
d|-------------------------------------------|
a|-------------------------------------------|
e|-------------------------------------------|

          F    F E            Am
angel adorado,     dame tu perdón.
e|------------1-0--------------5-----5---------|
b|------1-----1-0---------------5-5-5----------|
g|------2-----2-1------------------------------|
d|------3-----3-2----------------------2-0-3---|
a|------3------------------------------3-2-0-7-|
e|------1------------------------------------0-|

estribillo (la letra en negrita es la segunda voz)
E                                      Am
Si               tu sabes       que te quiero
   tu sabes que te quiero con todo el corazón

                                    E
con todo el corazón con todo el coraQue
con todo el corazón con todo el corazón

                                       Am
               en MI vive       LA esperanza
Que tu eres la esperanza de mi única ilusión

                                    A
de mi única ilusión de mi única y   ven
de mi única ilusión de mi única ilusión

                  A7                  Dm
          dame la dicha      que se alcanza
Ven calma mis angustias con un poco de amor

                                       Am
con un poco de amor que es todo lo que ansía
con un poco de amor               cuando ama

                     E                Am
que es todo lo que ansía mi pobre corazón.
              cuando ama mi pobre corazón
picado

  Am         E             Am
Jamas         habrá quien separé
e|-------------------------------------10-12-10-----------------|
b|------------------------------9-10-12---13-12-13-12-10--12-10-|
g|-----7-10-9---------------9-11------------------------13------|
d|-----7-10-9---------------------------------------------------|

  A                                          A7
amor                                         de tu amor
e|--18-18-15-15-13-13-12-12------------------------|
b|-------------------------15-15-14-14-------------|
g|-------------------------------------15-15-14-14-|

      Dm
  el mio
e|----------10--12-10-------------------0-5-4-3-|
b|--------10--14------10---------5p3-2-3--------|
g|------10--------------10-9--------------------|
d|-12-14--------------------12-11---------------|

     E             Am
  porqué               si tu amor ansío
e|-7--8-10--8-7--8-10-|
b|-9-10-12-10-9-10-12-|
g|--------------------|
d|--------------------|

  Am                                F   F E            Am
ansío                es el que amor mío,    pide tu perdón.
e|--8-10-12-10--8-10-12-----------------1-0---------------5----5---------|
b|-10-12-13-12-10-12-13-------------1---1-0----------------5-5-----------|
g|----------------------------------2---2-1------------------------------|
d|----------------------------------3---3-2----------------------2-0-3---|
a|----------------------------------3----------------------------3-2-0-7-|
e|----------------------------------1----------------------------------0-|
estribillo (la letra en negrita es la segunda voz)

Versión de ?Los Potes? de Santiago de Compostela
Suggest correction
Creating personal tab
Creating personal tab
You can edit any tab online and save it as your Personal.

You can edit, replace or remove any tab part or add personal notes – all changes will be seen only by you.

Personal tabs can be accessed anytime from any device, even offline.
Learn more »
Give kudos to tab author, rate the tab!
1 2 3 4 5
comments
print report bad tab
guest
Wanna post a correction for this tab? Suggest correction