Oops, an error
Loading. Please wait.

Sin Tí tab

version 4
version 4

Whole song

Interactive

97 views 6 this week
no commentswrite comment
1 2 3 4 5
3 more votes to show rating
add to favorites
×
Save as Personal and add changes to this tab that will be seen only by you. Learn more ›
×
You can save this tab as Personal to edit and correct it or add notes. All changes will be seen only by you. Learn more »
launch autoscroll
font size
0
reset
how to read this tab
guitar tuner
edit
Autoscroll
slow
fast
+/-
esc
set tempo
stop
Esta Rola lleva capo en 2 traste
si el requinto esta afinadop en sol(G)
y si no al aire afinado en La (A)
para guitarra es en Re(D)
van incluidos arreglos de la cancion original
y el requinto.

Requinto
                  Dm          E7
G--------------------------3-2-1--------------------
B-2-3-4-5---------7-3-0-2-0-------------------------
e--------5-7-5-7-5---------------4-5-4-5-6-7-5-5-4-7

                     C#m                  D                   E7  E+5
G:------------------6--------------------6--------------------4---3
B:-----------------5--------------------5--------------------3--5-3
e:5-7-5-7-5-7-5-7-5--5-4-5-4-5-4-5-4-5-4--4-2-4-2-4-2-4-2-4-2--2--2
     A
sin ti
B:2-3-2-3-4-5
                 C#m
no podre vivir jamas
G:-6
B:--5---------5-6-7
e:---4-7-4-5-4
                    A
y pensar que nunca mas
G:2-4-5-6
B:2-3-4-5
      F#dim     Bm
estaras  junto ami
          E7
G:2-4
B:---2-3-5-----------3-4-5
e:--------2-3-5-2-3-2
      Bm
sin ti
G:2-4
B:---2-3-5
e:--------2-3-5
E7                    Bm
que me puede ya importar
G:-----3-2-1
B:0-2-0
E7                   Bm
si lo que me hace llorar
B:7-7-7-7
e:9-7-9-7
E7              A
esta lejos de aqui
     A     F#m     Bm       E7
G------------------------3-2-1
B-2-3-4-5---------7-0-2-0
e--------5-7-5-7-5
     A
sin ti
B:2-3-2-3-4-5
                         C#m
no hay clemencia en mi dolor
G:-6
B:--5---------5-6-7
e:---4-7-4-5-4
                    A
la esperanza de mi amor
     A7            D F#7
te la llevas al fin
     D Dm
sin ti
            A
es inutil vivir
            F#m
B:-2-3-4-5
e:--------4-5-7-5
             Bm
como inutil sera
           E7
G:-----3-2-1
B:0-2-0
                 A
el quererte olvidar
                      C#m                  D                   E7  E+5
G:------------------6--------------------6--------------------4---3
B:-----------------5--------------------5--------------------3--5-3
e:5-7-5-7-5-7-5-7-5--5-4-5-4-5-4-5-4-5-4--4-2-4-2-4-2-4-2-4-2--2--2
Suggest correction
Creating personal tab
Creating personal tab
You can edit any tab online and save it as your Personal.

You can edit, replace or remove any tab part or add personal notes – all changes will be seen only by you.

Personal tabs can be accessed anytime from any device, even offline.
Learn more »
Give kudos to tab author, rate the tab!
1 2 3 4 5
comments
print report bad tab
guest
Wanna post a correction for this tab? Suggest correction