Oops, an error
Loading. Please wait.

Amnistía tab

version 3
version 3

Whole song

by Panda
62 views 1 this week
no commentswrite comment
1 2 3 4 5
3 more votes to show rating
add to favorites
×
Save as Personal and add changes to this tab that will be seen only by you. Learn more ›
×
You can save this tab as Personal to edit and correct it or add notes. All changes will be seen only by you. Learn more »
launch autoscroll
font size
0
reset
how to read this tab
guitar tuner
edit
Autoscroll
slow
fast
+/-
esc
set tempo
stop
Las notas originales del unplugged solo lleven bien el tiempo
y veran q sale bien lo ultimo donde dice final solo toquen asu manera
=que artur jeje
pp toca con capo en el quinto traste


solo Pp
Intro: Em C G D

Pp y Artur: Em C G D

e|------------------------------------------------||
B|--5/8/10--10~--12b---10-8-8h10-8~--5-3/1/3------||
G|------------------------------------------------||
D|------------------------------------------------||
A|------------------------------------------------||
E|------------------------------------------------||


e|---------------------------------------||
B|---------------------------------------||
G|------------------------5-7-7/9-5-5~---||
D|--7-5---------------5-7----------------||
A|------7-5-3-0-3-5-7--------------------||
E|---------------------------------------||


Em            C           G                     D
Yo manifestaré que últimamente cosas indecentes que yo cometí
                 e|-10-10/-8---8-----------|------------------||
                 B|-12-12/-10--10----------|------------------||
                 G|---------------10-8--7/9|------------------||
                 D|---------------9--7-----|--7-5-------------||
                 A|------------------------|------7-5---------||
                 E|------------------------|----------8-------||

Em         C                G                     D           C
Años ayer han regresado, me están atormentando por eso entendí
e|------------------------------------------||
B|------------------------------------------||
G|--7^5-----------5--------9-9-9-9/7--7-7/5-||
D|----------5-5/7---------------------------||
A|------------------------------------------||
E|------------------------------------------||


C          G        Bm               C
Si el poder tuviera del pasado cambiar
e|----------------------10----10--------------||
B|-6-6-6-6---8-8-8----8-8-8-8-8-8----6-6-6-6--||
G|-5-5-5-5---9-8-8----0-0-0-0-0-0----6-6-6-6--||
D|-7-7-7-7--10-10-10--9-9-9-9-9-9----7-7-7-7--||
A|-8-8-8-8-----------10-10-10-10-10--8-8-8-8--||
E|--------------------------------------------||

       C            G      Bm
Sin dudar restituiría su vida
e|-----------10--10------------------||
B|-6-6-6-6---8-8-8----8-8-8-8-8-8----||
G|-5-5-5-5---9-8-8----0-0-0-0-0-0----||
D|-7-7-7-7--10-10-10--9-9-9-9-9-9----||
A|-8-8-8-8-----------10-10-10-10-10--||
E|-----------------------------------||
               C    D       C
Con la mía pues ya no la ocupo / más...
e|------------------7-7-7-------------||
B|--------6-6-6-6---8-8-8----6-6-6-6--||
G|--------5-5-5-5---7-7-7----6-6-6-6--||
D|--------7-7-7-7------------7-7-7-7--||
A|--------8-8-8-8------------8-8-8-8--||
E|------------------------------------||
Estilo Blues...

 Em          C                     G                  D
e|----------------------------------8--8----10----12----10---8--8-------||
B|-2/5-5~~-8/10--13-15^-13/15--------------------------------------------||
G|-2/5-5~~---------------------5/9---9---10---10-12-12-10--9--9---5-5/7-7||
D|-----------------------------------------------------------------------||
A|-----------------------------------------------------------------------||
E|-----------------------------------------------------------------------||

Em              C           G                     D
Es mucho pretender el ser indultado, sí estoy temblando más no lloraré
e|-----------------------------------------------------------------||
B|-----8~8~8~8~8~8~8~----------------------------------------------||
G|7/9--9~9~9~9~9~9~9~9~-95-5h7-5~-----------------------5-7/9-5-5~-||
D|--------------------------------7-5---------------5-7------------||
A|------------------------------------7-5-3-0-3-5-7----------------||
E|-----------------------------------------------------------------||

Em              C           G                     D                   C
No puedo borrar todos los llantos, causé mucho daño, quiero compensar...

C          G          Bm             C
Yo  le   instalaría   mucha       felicidad
e|----------------------10----10--------------||
B|-6-6-6-6---8-8-8----8-8-8-8-8-8----6-6-6-6--||
G|-5-5-5-5---9-8-8----0-0-0-0-0-0----6-6-6-6--||
D|-7-7-7-7--10-10-10--9-9-9-9-9-9----7-7-7-7--||
A|-8-8-8-8-----------10-10-10-10-10--8-8-8-8--||
E|--------------------------------------------||
      C           G      Bm                      C
20 meses lo que ella tenía, si la tenía en realidad
e|--------------10--10---------------------------||
B|-6-6-6-6------8-8-8------8-8-8-8-8-8-----------||
G|-5-5-5-5------9-8-8------0-0-0-0-0-0-----------||
D|-7-7-7-7-----10-10-10----9-9-9-9-9-9-----------||
A|-8-8-8-8----------------10-10-10-10-10---------||
E|-----------------------------------------------||
     C             G      Bm             C
Es verdad que cada anochecer...Cada despertar...
 e|--------------10--10---------------------------||
B|-6-6-6-6------8-8-8------8-8-8-8-8-8-----------||
G|-5-5-5-5------9-8-8------0-0-0-0-0-0-----------||
D|-7-7-7-7-----10-10-10----9-9-9-9-9-9-----------||
A|-8-8-8-8----------------10-10-10-10-10---------||
E|-----------------------------------------------||
       C        G        Bm             C      D          C
Nunca logro olvidar su cara suplicando piedad, perdoname y ya...
e|--------------10--10----------------------------7-7-7----------||
B|-6-6-6-6------8-8-8------8-8-8-8-8-8----6-6-6---8-8-8----6-6-6-||
G|-5-5-5-5------9-8-8------0-0-0-0-0-0----5-5-5---7-8-8----5-5-5-||
D|-7-7-7-7-----10-10-10----9-9-9-9-9-9----7-7-7------------7-7-7-||
A|-8-8-8-8----------------10-10-10-10-10--8-8-8------------8-8-8-||
E|---------------------------------------------------------------||

Final
PP toca esto
C G Bm C / C G Bm C D C

artur        de aqui artur lo hace a su manera se repite hasta qtermine
e|--------------10--10--10-----12-----10-----12----10---10-||
B|-6-6-6-6------8-8-8-8-8-8-8-8-8-8-8-8-8-8-8-8-8-8-8-8-8-||
G|-5-5-5-5------9-9-9-9-9-9-9-9-9-9-9-9-9-9-9-9-9-9-9-9-9-||
D|-7-7-7-7-----10-10-10-10-10-10-10-10-10-10-10-10-10-10-10||
A|-8-8-8-8------------------------------------------------||
E|--------------------------------------------------------||


E

            
            
Suggest correction
Creating personal tab
Creating personal tab
You can edit any tab online and save it as your Personal.

You can edit, replace or remove any tab part or add personal notes – all changes will be seen only by you.

Personal tabs can be accessed anytime from any device, even offline.
Learn more »
Give kudos to tab author, rate the tab!
1 2 3 4 5
comments
print report bad tab
guest
Wanna post a correction for this tab? Suggest correction