Oops, an error
Loading. Please wait.

Amnistía tab

version 4
version 4

Whole song

by Panda
79 views 1 this week
no commentswrite comment
1 2 3 4 5
3 more votes to show rating
add to favorites
×
Save as Personal and add changes to this tab that will be seen only by you. Learn more ›
×
You can save this tab as Personal to edit and correct it or add notes. All changes will be seen only by you. Learn more »
launch autoscroll
font size
0
reset
how to read this tab
guitar tuner
edit
Autoscroll
slow
fast
+/-
esc
set tempo
stop
1º REQINTO:

1.---------------------------------------------------
2.--2/5/8-8/10-12/13-12-10-8-8/10-8-7-5--------------
3.--------------------------------------7-5-5/7-5----
4.---------------------------------------------------
5.---------------------------------------------------
6.---------------------------------------------------

1.---------------------------------------------------
2.---------------------------------------------------
3.------------------------5-7-7/9-7-5----------------
4.--7-5---------------5-7----------------------------
5.------7-5-3-0-3-5-7--------------------------------
6.---------------------------------------------------

1.---------------------------------------------------
2.--16-13-10-5------------------88-8-----------------
3.--15-12-9--5---7-7-5-------5--77-77-5--------------
4.---------------------5-5/7-------------------------
5.---------------------------------------------------
6.---------------------------------------------------

Capo 5º traste.
Verso 1:
(Em  C  G  D)x2

Em      C         G
Yo manifestare que últimamente,
D
Cosas indecentes que yo cometí,
Em
Años ayer,
  C          G                     D
Han regresado, me están tormentando

Por eso entendí
C           G   Bm                  C
Si el poder tuviera del pasado cambiar,
                  G            Bm
Sin dudar restituiría su vida,
                 C
Con la mía pues ya,
   D       C
No la ocupo mas


2º REQINTO

1.------------8-10-10-8-8/10-8---8---8---10-----12----10---
2.--3/5-5-6/8----------------------------------------------
3.--3/5-5----------------------9---9---10----12-----10-----
4.---------------------------------------------------------
5.---------------------------------------------------------
6.---------------------------------------------------------

1.---8------------------------------------------------------
2.---------------------8---8---8---8---8---8---8------------
3.-9---9-7-5-5/7-5---9---9---9---9---9---9---9---9-7-5-5/7-5
4.----------------------------------------------------------
5.----------------------------------------------------------
6.----------------------------------------------------------

1.-------------------------------------------
2.-------------------------------------------
3.------------------------5-7-7/9-7-5--------
4.--7-5---------------5-7--------------------
5.------7-5-3-0-3-5-7------------------------
6.-------------------------------------------


Capo 5º Traste.
Verso 2:
(Em  C  G  D)x2

Em              C               G
Es mucho pretender el ser indultado,
              D
Si estoy temblando mas no llorare,
Em             C              G
No puedo borrar todos los llantos,
             D
Cause mucho daño,
              C
Quiero compensar

          G     Bm              C
Yo le instalaría mucha felicidad,
                    G            Bm
Veinte  veces lo que ella tenia,
                     C
Si lo tenía en realidad

                     G         Bm
Es verdad que cada anochecer,
            C
Cada despertar, nunca logro,
     G           Bm
Olvidar su cara,
             C
Suplicando piedad,
   D        C
Perdóname ya


G Bm C G Bm C/D/C

            
            
Suggest correction
Creating personal tab
Creating personal tab
You can edit any tab online and save it as your Personal.

You can edit, replace or remove any tab part or add personal notes – all changes will be seen only by you.

Personal tabs can be accessed anytime from any device, even offline.
Learn more »
Give kudos to tab author, rate the tab!
1 2 3 4 5
comments
print report bad tab
guest
Wanna post a correction for this tab? Suggest correction