Oops, an error
Loading. Please wait.

Atractivo Encontramos En Lo Más Repugnante tab

version 3
version 3

Whole song

Interactive

by Panda
62 views 1 this week
no commentswrite comment
1 2 3 4 5
3 more votes to show rating
add to favorites
×
Save as Personal and add changes to this tab that will be seen only by you. Learn more ›
×
You can save this tab as Personal to edit and correct it or add notes. All changes will be seen only by you. Learn more »
launch autoscroll
font size
0
reset
how to read this tab
guitar tuner
edit
Autoscroll
slow
fast
+/-
esc
set tempo
stop
ACLARACION: AFINACION BMOL EbBbGbDbAbEb

INTRO

GUITARRA 1
E----3---3---3--------------------------------
B------3-------3---------5--------------------
G--4-------4-----44-7-4-7------4...-----------
D---------------------------------------------
A---------------------------------------------
E---------------------------------------------

GUITARRA 2
E---------------------------------------------
B---------------------------------------------
G-44444444------------------------------------
D-44444444-555555-22222222-777777-------------
A-22222222-555555-22222222-777777-------------
E----------333333-00000000-555555-------------

ESTROFA
NOTA: LA PRIMERA GUITARRA PUEDE HACER
ALGUNAS IMPROVISACIONES

 B5                  G5
Yo te encuentro tan bella y tan irreal
E5
te preparo mi ser para un ritual
B5              G5
De oro puro yo te voy a bañar
E5
como estatua te voy a idolatrar
B5    G5
tu mirada profunda
  E5
y fria esqive
       B5       G5
para evitar en piedra
        E5
transformarme

PUENTE
e------------------------------------------
B-----2-------2-------2-------2-------2----
G---2---2---2---2---2---2---2---2---2---2--
D---------0--------------------------------
A------------------------------------------
E-3---------------2-------3--------5-------

ESTRIBILLO
NOTA: LOS PUNTEOS SON LA MELODIA D LA LETRA

E---------------------------------------------------
B---------------------------------------------------
G----------44---------------------------------------
D-55--77---44-44-55-22---55--77--44444444--55555555-
A-55--77---22-44-55-22---55--77--44444444--55555555
E-33--55------22-33-00---33--55--22222222--33333333-


G5
EL poeta se va.!!
A5
el poeta se va..!!

 B5  Fsus5 G5 E5
(en medio de abucheos)...
G5
Cabisbajo se va..!!
A5               Fsus5 G5
no tengo a nadie mas..!!

INTRO
ESTROFA

El tiempo se come nuestras vidas
y ha dañado un poco mas la herida
me enterado que tiene otra mision
extinguir lo excelso de nuestro amor
quiero arrojar como carta de amor
al fuego a este enjendro
y que sienta el ardor

PUENTE
ESTRIBILLO

El poeta se va..!!
el poeta se va..!!
(en medio de abucheos)..
Cabisbajo se va..!
no tengo a nadie mas..!!

EL poeta se va..!
el poeta se va..!!
(en medio de abucheos)..
Cabisbajo se va..!!
no tengo a nadie mas..!!

PUENTE:
NOTA: La base son las notas de la estrofa , mientras
La otra guitarra hace algo en RE...

ESTRIBILLO

EL poeta se va..!
el poeta se va..!!
(en medio de abucheos)..
Cabisbajo se va..!!
no tengo a nadie mas..!!

EL poeta se va..!
el poeta se va..!!
(en medio de abucheos)..
Cabisbajo se va..!!
no tengo a nadie mas..!!

FINAL EN B5

            
            
Suggest correction
Creating personal tab
Creating personal tab
You can edit any tab online and save it as your Personal.

You can edit, replace or remove any tab part or add personal notes – all changes will be seen only by you.

Personal tabs can be accessed anytime from any device, even offline.
Learn more »
Give kudos to tab author, rate the tab!
1 2 3 4 5
comments
print report bad tab
guest
Wanna post a correction for this tab? Suggest correction