Oops, an error
Loading. Please wait.

Conversación Casual tab

version 3
version 3

Whole song

Interactive

by Panda
28 views 1 this week
no commentswrite comment
1 2 3 4 5
3 more votes to show rating
add to favorites
×
Save as Personal and add changes to this tab that will be seen only by you. Learn more ›
×
You can save this tab as Personal to edit and correct it or add notes. All changes will be seen only by you. Learn more »
launch autoscroll
font size
0
reset
how to read this tab
guitar tuner
edit
Autoscroll
slow
fast
+/-
esc
set tempo
stop
Author
Unregistered
no olviden votar

Intro

Guitarra 1 (Arturo)

|---------------------------------6-6--8-8-|
|---6-6-6--8-8-8---------------------------|
|------------------7-7-7--8-8-8------------|
|------------------------------------------|
|------------------------------------------|
|------------------------------------------|  (x4)


Pepe  guitarra 2
|--4--|
|--5--|
|--6--|
|--6--|
|--4--|
|--4--| (x2)


Verso (x2)

|---------------------------------6-6--8-8--6-6-6--|
|---6-6-6--8-8-8-----------------------------------|
|------------------7-7-7--8-8-8--------------------|
|--------------------------------------------------|
|--------------------------------------------------|
|--------------------------------------------------|


|--------------------------------------|
|8-8-8--9-9-9--8-8-8--9-9--8-8---------|
|--------------------------------------|
|--------------------------------------|
|--------------------------------------|
|--------------------------------------|


|----11-11-11--8-8-8--6-6-6-----------------------|
|--------------------------------8-8-8--9-9--8-8--|
|-------------------------------------------------|
|-------------------------------------------------|
|-------------------------------------------------|
|-------------------------------------------------|


|-----11-11-11--8-8-8--6-6-6----------------------|
|--------------------------------8-8-8--9-9--8-8--|
|-------------------------------------------------|
|-------------------------------------------------|
|-------------------------------------------------|
|-------------------------------------------------|


Coro ----x2

Pepe

|----------------------------------------------------|
|----------------------------------------------------|
|---8-8-8-8-8------------------5-5-5-5-5---3-3-3-3-3-|
|---8-8-8-8-8---5-5-5-5-5------5-5-5-5-5---3-3-3-3-3-|
|---6-6-6-6-6---5-5-5-5-5------3-3-3-3-3---1-1-1-1-1-|
|---------------3-3-3-3-3----------------------------|

R2D2

|--11----11----11----11-----|
|-----11----11----11----11--|
|---------------------------|   x2
|---------------------------|
|---------------------------|
|---------------------------

|-10----10---10---10---------|
|----8-----8----8---8-(x2)---|
|----------------------------|  x2
|----------------------------|
|----------------------------|
|----------------------------|

|-11---11---11---11-----|
|---13---13---13---13---|
|-----------------------|  x2
|-----------------------|
|-----------------------|
|-----------------------|

|-------------------------|
|11---11---11---11--------|
|---10---10---10---10-----|  x2
|-------------------------|
|-------------------------|
|-------------------------|

Se repite Intro

Verso (x2)

|---------------------------------6-6--8-8--6-6-6--|
|---6-6-6--8-8-8-----------------------------------|
|------------------7-7-7--8-8-8--------------------|
|--------------------------------------------------|
|--------------------------------------------------|
|--------------------------------------------------|


|--------------------------------------|
|8-8-8--9-9-9--8-8-8--9-9--8-8---------|
|--------------------------------------|
|--------------------------------------|
|--------------------------------------|
|--------------------------------------|


|----11-11-11--8-8-8--6-6-6-----------------------|
|--------------------------------8-8-8--9-9--8-8--|
|-------------------------------------------------|
|-------------------------------------------------|
|-------------------------------------------------|
|-------------------------------------------------|


|-----11-11-11--8-8-8--6-6-6----------------------|
|--------------------------------8-8-8--9-9--8-8--|
|-------------------------------------------------|
|-------------------------------------------------|
|-------------------------------------------------|
|-------------------------------------------------|

Coro ----x2

Pepe Guitarra 2

|----------------------------------------------------|
|----------------------------------------------------|
|---8-8-8-8-8------------------5-5-5-5-5---3-3-3-3-3-|
|---8-8-8-8-8---5-5-5-5-5------5-5-5-5-5---3-3-3-3-3-|
|---6-6-6-6-6---5-5-5-5-5------3-3-3-3-3---1-1-1-1-1-|
|---------------3-3-3-3-3----------------------------|

R2D2

|--11----11----11----11-----|
|-----11----11----11----11--|
|---------------------------|   x2
|---------------------------|
|---------------------------|
|---------------------------

|-10----10---10---10---------|
|----8-----8----8---8-(x2)---|
|----------------------------|  x2
|----------------------------|
|----------------------------|
|----------------------------|

|-11---11---11---11-----|
|---13---13---13---13---|
|-----------------------|  x2
|-----------------------|
|-----------------------|
|-----------------------|

(Solo)

|----------------------------------------------------------|
|---11-(x15)--10-10-10--11-11-11--13-13-13-13-13-13-13-----|
|----------------------------------------------------------|
|----------------------------------------------------------|
|----------------------------------------------------------|
|----------------------------------------------------------| (x1)

|---13---------13--------13--------13--------13----14----|
|------11--11-----11--11----11--11---11--11----11----11--|
|--------------------------------------------------------|
|--------------------------------------------------------|
|--------------------------------------------------------|
|--------------------------------------------------------| (x2)

|---15-15-15/16-16-16/15-15-15-15/18-18-18-18/11---|
|--------------------------------------------------|
|--------------------------------------------------|
|--------------------------------------------------|
|--------------------------------------------------|
|--------------------------------------------------| (x2)

|--11~~~---10~~~--------------------------|
|---------------13~~~---11~~~-------------|
|-----------------------------------------|
|-----------------------------------------|
|-----------------------------------------|
|-----------------------------------------| (x2)

Coro x2

Pepe G2

|----------------------------------------------------|
|----------------------------------------------------|
|---8-8-8-8-8------------------5-5-5-5-5---3-3-3-3-3-|
|---8-8-8-8-8---5-5-5-5-5------5-5-5-5-5---3-3-3-3-3-|
|---6-6-6-6-6---5-5-5-5-5------3-3-3-3-3---1-1-1-1-1-|
|---------------3-3-3-3-3----------------------------|

R2D2

|--11----11----11----11-----|
|-----11----11----11----11--|
|---------------------------|   x2
|---------------------------|
|---------------------------|
|---------------------------

|-10----10---10---10---------|
|----8-----8----8---8-(x2)---|
|----------------------------|  x2
|----------------------------|
|----------------------------|
|----------------------------|

|-11---11---11---11-----|
|---13---13---13---13---|
|-----------------------|  x2
|-----------------------|
|-----------------------|
|-----------------------|

|-------------------------|
|11---11---11---11--------|
|---10---10---10---10-----|  x2
|-------------------------|
|-------------------------|
|-------------------------|


|-1~~~-----------|
|----------------|
|----------------|FIN

Pues
eso es todo
esta 100% correcta
SI quieren
revisenla
comparenla con la cancion
y
veran como si
ps
eso es todo
ya saben
disfrutenla y no olviden votar

            
            
Suggest correction
Creating personal tab
Creating personal tab
You can edit any tab online and save it as your Personal.

You can edit, replace or remove any tab part or add personal notes – all changes will be seen only by you.

Personal tabs can be accessed anytime from any device, even offline.
Learn more »
Give kudos to tab author, rate the tab!
1 2 3 4 5
comments
print report bad tab
guest
Wanna post a correction for this tab? Suggest correction