Oops, an error
Loading. Please wait.

Corazón De Un Cuento Roto bass

version 2
version 2

Whole song

Interactive

by Panda
35 views 1 this week
no commentswrite comment
1 2 3 4 5
3 more votes to show rating
add to favorites
×
Save as Personal and add changes to this tab that will be seen only by you. Learn more ›
×
You can save this tab as Personal to edit and correct it or add notes. All changes will be seen only by you. Learn more »
launch autoscroll
font size
0
reset
guitar tuner
edit
Autoscroll
slow
fast
+/-
esc
set tempo
stop
-------------------------------------------------------------------------------------------------
				   Corazon de un cuento roto
					      Panda
-------------------------------------------------------------------------------------------------
Esta cancion se la quiero dedicar a Marien, 'Has de cuenta no existio, ya te ha roto el corazon'
y esta rola esta bien pero bien facil, la cosa es escucharla e irla siguiendo, la neta en bajo
no tiene muchas complicaciones, dudas, comentarios o lo que sea ahi ta mi mail. Viva Panda, 
Division, Imposibles, Bye Sami, Tolidos !!!!

_________________________________________________________________________________________________

Intro:
|-----------------------------------------------------------------------------------|
|-----------------------------------------------------------------------------------|
|------------------4-4-4-4-4-4-4-4-------------------6-6-6-6-6-6-6-6----------------| x 2 veces
|--4-4-4-4-4-4-4-4------------------6-6-6-6-6-6-6-6---------------------------------|
_________________________________________________________________________________________________

Verso:
|-----------------------------------------------------------------------------------|
|-----------------------------------------------------------------------------------|
|------------------4-4-4-4-4-4-4-4-------------------6-6-6-6-6-6-6-6----------------| x 5 veces
|--4-4-4-4-4-4-4-4------------------6-6-6-6-6-6-6-6---------------------------------|

Una noche yo recuerdo
el lugar estaba lleno 
cantando a los muchachos

Yo la vi desde muy lejos
la vi ya ni me acuerdo
de lo que estaba cantando

NOTA: hay un puente entre verso y verso, es lo mismo, el puente va entre estos dos versos

Ya queria que se acabara
se acabara la tocada
para asi llegar con ella

Todo el tiempo la buscaba 
y yo no la encontraba
ya se fue con un gandalla :'(
_________________________________________________________________________________________________

Pre Coro:
|-----------------------------------------------------------------------------------|
|-----------------------------------------------------------------------------------|
|-----------4-4-4-4--6-6-6-6--6-----------------------------------------------------|  x 4 veces
|--4-4-4-4----------------------6-6-6-6---------------------------------------------|

Oye Ongi dime que voy a hacer ?
que solo con verla me enamore
se que suena tonto pero asi es
no la encuentro pero asi lo es
_________________________________________________________________________________________________

Coro:
|-----------------------------------------------------------------------------------|
|-----------------------------------------------------------------------------------|
|------------------4-4-4-4-4-4-4-4-------------------6-6-6-6-6-6-6-6----------------| x 2 veces
|--4-4-4-4-4-4-4-4------------------6-6-6-6-6-6-6-6---------------------------------|

Has de cuenta no existio
ya te ha roto el corazon
Has de cuenta no existio
ya te ha roto el corazon

NOTA: Despues de esto se toca dos veces lo mismo, que es como un puente para el verso, se toca 
dos veces la parte del coro
_________________________________________________________________________________________________

Verso:
|-----------------------------------------------------------------------------------|
|-----------------------------------------------------------------------------------|
|------------------4-4-4-4-4-4-4-4-------------------6-6-6-6-6-6-6-6----------------| x 5 veces
|--4-4-4-4-4-4-4-4------------------6-6-6-6-6-6-6-6---------------------------------|

Y entre tanta tanta raza
se me hizo ya mirarla
mientras yo me le acercaba

La bese como si nada
ella solo dijo basta
GUACALA ! estas en Panda
_________________________________________________________________________________________________

Pre Coro:
|-----------------------------------------------------------------------------------|
|-----------------------------------------------------------------------------------|
|-----------4-4-4-4--6-6-6-6--6-----------------------------------------------------|  x 4 veces
|--4-4-4-4----------------------6-6-6-6---------------------------------------------|

Oye Ongi dime que voy a hacer ?
que solo con verla me enamore
se que suena tonto pero asi es
no la encuentro pero asi lo es
_________________________________________________________________________________________________

Coro:
|-----------------------------------------------------------------------------------|
|-----------------------------------------------------------------------------------|
|------------------4-4-4-4-4-4-4-4-------------------6-6-6-6-6-6-6-6----------------| x 2 veces
|--4-4-4-4-4-4-4-4------------------6-6-6-6-6-6-6-6---------------------------------|

Has de cuenta no existio
ya te ha roto el corazon
Has de cuenta no existio
ya te ha roto el corazon

NOTA: Despues de esto se toca:
|-----------------------------------------------------------------------------------|
|-----------------------------------------------------------------------------------|
|-------6--------6--6---------------------------------------------------------------| x 3 veces
|--4--4-----6--6--------------------------------------------------------------------|
 La 4ta vez ya es ritmica

y para acabar la parte del coro.

Eso es todo, espero que le entiendan, si me equivoque en algo haganmelo saber via mail y lo 
corregimos, chido ?.

            
            
Suggest correction
Creating personal tab
Creating personal tab
You can edit any tab online and save it as your Personal.

You can edit, replace or remove any tab part or add personal notes – all changes will be seen only by you.

Personal tabs can be accessed anytime from any device, even offline.
Learn more »
Give kudos to tab author, rate the tab!
1 2 3 4 5
comments
print report bad tab
guest
Wanna post a correction for this tab? Suggest correction